  0
SECTION
  2
HEADER
  9
$ACADVER
  1
AC1014
  9
$HANDSEED
  5
FFFF
  9
$MEASUREMENT
 70
     1
  0
ENDSEC
  0
SECTION
  2
TABLES
  0
TABLE
  2
VPORT
  5
8
330
0
100
AcDbSymbolTable
 70
     4
  0
VPORT
  5
2E
330
8
100
AcDbSymbolTableRecord
100
AcDbViewportTableRecord
  2
*ACTIVE
 70
     0
 10
0.0
 20
0.0
 11
1.0
 21
1.0
 12
210.0
 22
148.5
 13
0.0
 23
0.0
 14
10.0
 24
10.0
 15
10.0
 25
10.0
 16
0.0
 26
0.0
 36
1.0
 17
0.0
 27
0.0
 37
0.0
 40
341.0
 41
1.24
 42
50.0
 43
0.0
 44
0.0
 50
0.0
 51
0.0
 71
     0
 72
   100
 73
     1
 74
     3
 75
     0
 76
     0
 77
     0
 78
     0
  0
ENDTAB
  0
TABLE
  2
LTYPE
  5
5
330
0
100
AcDbSymbolTable
 70
     1
  0
LTYPE
  5
14
330
5
100
AcDbSymbolTableRecord
100
AcDbLinetypeTableRecord
  2
BYBLOCK
 70
     0
  3

 72
    65
 73
     0
 40
0.0
  0
LTYPE
  5
15
330
5
100
AcDbSymbolTableRecord
100
AcDbLinetypeTableRecord
  2
BYLAYER
 70
     0
  3

 72
    65
 73
     0
 40
0.0
  0
LTYPE
  5
16
330
5
100
AcDbSymbolTableRecord
100
AcDbLinetypeTableRecord
  2
CONTINUOUS
 70
     0
  3
Solid line
 72
    65
 73
     0
 40
0.0
  0
ENDTAB
  0
TABLE
  2
LAYER
  5
2
100
AcDbSymbolTable
 70
1
  0
LAYER
  5
50
100
AcDbSymbolTableRecord
100
AcDbLayerTableRecord
  2
0
 70
0
  6
CONTINUOUS
  0
ENDTAB
  0
TABLE
  2
STYLE
  5
3
330
0
100
AcDbSymbolTable
 70
     1
  0
STYLE
  5
11
330
3
100
AcDbSymbolTableRecord
100
AcDbTextStyleTableRecord
  2
STANDARD
 70
     0
 40
0.0
 41
1.0
 50
0.0
 71
     0
 42
2.5
  3
txt
  4

  0
ENDTAB
  0
TABLE
  2
VIEW
  5
6
330
0
100
AcDbSymbolTable
 70
     0
  0
ENDTAB
  0
TABLE
  2
UCS
  5
7
330
0
100
AcDbSymbolTable
 70
     0
  0
ENDTAB
  0
TABLE
  2
APPID
  5
9
330
0
100
AcDbSymbolTable
 70
     2
  0
APPID
  5
12
330
9
100
AcDbSymbolTableRecord
100
AcDbRegAppTableRecord
  2
ACAD
 70
     0
  0
ENDTAB
  0
TABLE
  2
DIMSTYLE
  5
A
330
0
100
AcDbSymbolTable
 70
     1
  0
DIMSTYLE
105
27
330
A
100
AcDbSymbolTableRecord
100
AcDbDimStyleTableRecord
  2
ISO-25
 70
     0
  3

  4

  5

  6

  7

 40
1.0
 41
2.5
 42
0.625
 43
3.75
 44
1.25
 45
0.0
 46
0.0
 47
0.0
 48
0.0
140
2.5
141
2.5
142
0.0
143
0.03937007874016
144
1.0
145
0.0
146
1.0
147
0.625
 71
     0
 72
     0
 73
     0
 74
     0
 75
     0
 76
     0
 77
     1
 78
     8
170
     0
171
     3
172
     1
173
     0
174
     0
175
     0
176
     0
177
     0
178
     0
270
     2
271
     2
272
     2
273
     2
274
     3
340
11
275
     0
280
     0
281
     0
282
     0
283
     0
284
     8
285
     0
286
     0
287
     3
288
     0
  0
ENDTAB
  0
TABLE
  2
BLOCK_RECORD
  5
1
330
0
100
AcDbSymbolTable
 70
     1
  0
BLOCK_RECORD
  5
1F
330
1
100
AcDbSymbolTableRecord
100
AcDbBlockTableRecord
  2
*MODEL_SPACE
  0
BLOCK_RECORD
  5
1B
330
1
100
AcDbSymbolTableRecord
100
AcDbBlockTableRecord
  2
*PAPER_SPACE
  0
ENDTAB
  0
ENDSEC
  0
SECTION
  2
BLOCKS
  0
BLOCK
  5
20
330
1F
100
AcDbEntity
  8
0
100
AcDbBlockBegin
  2
*MODEL_SPACE
 70
     0
 10
0.0
 20
0.0
 30
0.0
  3
*MODEL_SPACE
  1

  0
ENDBLK
  5
21
330
1F
100
AcDbEntity
  8
0
100
AcDbBlockEnd
  0
BLOCK
  5
1C
330
1B
100
AcDbEntity
 67
     1
  8
0
100
AcDbBlockBegin
  2
*PAPER_SPACE
  1

  0
ENDBLK
  5
1D
330
1B
100
AcDbEntity
 67
     1
  8
0
100
AcDbBlockEnd
  0
ENDSEC
  0
SECTION
  2
ENTITIES
  0
SPLINE
  5
100
100
AcDbEntity
  8
0
 62
7
100
AcDbSpline
 70
8
 71
3
 72
8
 73
4
 74
0
 40
0
 40
0
 40
0
 40
0
 40
1
 40
1
 40
1
 40
1
 10
59.400000
 20
8.664547
 30
0.0
 10
45.373984
 20
10.130685
 30
0.0
 10
31.405136
 20
17.228280
 30
0.0
 10
21.753778
 20
27.792637
 30
0.0
  0
SPLINE
  5
101
100
AcDbEntity
  8
0
 62
7
100
AcDbSpline
 70
8
 71
3
 72
8
 73
4
 74
0
 40
0
 40
0
 40
0
 40
0
 40
1
 40
1
 40
1
 40
1
 10
21.753778
 20
27.792637
 30
0.0
 10
14.491588
 20
35.741820
 30
0.0
 10
9.642337
 20
45.053685
 30
0.0
 10
7.356126
 20
55.440000
 30
0.0
  0
SPLINE
  5
102
100
AcDbEntity
  8
0
 62
7
100
AcDbSpline
 70
8
 71
3
 72
8
 73
4
 74
0
 40
0
 40
0
 40
0
 40
0
 40
1
 40
1
 40
1
 40
1
 10
7.356126
 20
55.440000
 30
0.0
 10
6.270609
 20
60.371530
 30
0.0
 10
6.120000
 20
61.965190
 30
0.0
 10
6.120000
 20
68.520000
 30
0.0
  0
SPLINE
  5
103
100
AcDbEntity
  8
0
 62
7
100
AcDbSpline
 70
8
 71
3
 72
8
 73
4
 74
0
 40
0
 40
0
 40
0
 40
0
 40
1
 40
1
 40
1
 40
1
 10
6.120000
 20
68.520000
 30
0.0
 10
6.120000
 20
75.300727
 30
0.0
 10
6.336154
 20
77.270114
 30
0.0
 10
7.682779
 20
82.758572
 30
0.0
  0
SPLINE
  5
104
100
AcDbEntity
  8
0
 62
7
100
AcDbSpline
 70
8
 71
3
 72
8
 73
4
 74
0
 40
0
 40
0
 40
0
 40
0
 40
1
 40
1
 40
1
 40
1
 10
7.682779
 20
82.758572
 30
0.0
 10
13.718344
 20
107.357776
 30
0.0
 10
34.473998
 20
125.431202
 30
0.0
 10
59.810542
 20
128.149923
 30
0.0
  0
SPLINE
  5
105
100
AcDbEntity
  8
0
 62
7
100
AcDbSpline
 70
8
 71
3
 72
8
 73
4
 74
0
 40
0
 40
0
 40
0
 40
0
 40
1
 40
1
 40
1
 40
1
 10
59.810542
 20
128.149923
 30
0.0
 10
62.814665
 20
128.472278
 30
0.0
 10
69.097790
 20
128.470528
 30
0.0
 10
72.274572
 20
128.146451
 30
0.0
  0
SPLINE
  5
106
100
AcDbEntity
  8
0
 62
7
100
AcDbSpline
 70
8
 71
3
 72
8
 73
4
 74
0
 40
0
 40
0
 40
0
 40
0
 40
1
 40
1
 40
1
 40
1
 10
72.274572
 20
128.146451
 30
0.0
 10
97.819170
 20
125.540534
 30
0.0
 10
119.134147
 20
106.497504
 30
0.0
 10
124.642905
 20
81.360000
 30
0.0
  0
SPLINE
  5
107
100
AcDbEntity
  8
0
 62
7
100
AcDbSpline
 70
8
 71
3
 72
8
 73
4
 74
0
 40
0
 40
0
 40
0
 40
0
 40
1
 40
1
 40
1
 40
1
 10
124.642905
 20
81.360000
 30
0.0
 10
125.764088
 20
76.243860
 30
0.0
 10
125.875455
 20
75.056974
 30
0.0
 10
125.870235
 20
68.280000
 30
0.0
  0
SPLINE
  5
108
100
AcDbEntity
  8
0
 62
7
100
AcDbSpline
 70
8
 71
3
 72
8
 73
4
 74
0
 40
0
 40
0
 40
0
 40
0
 40
1
 40
1
 40
1
 40
1
 10
125.870235
 20
68.280000
 30
0.0
 10
125.865735
 20
62.596181
 30
0.0
 10
125.798235
 20
61.431398
 30
0.0
 10
125.320065
 20
58.800000
 30
0.0
  0
SPLINE
  5
109
100
AcDbEntity
  8
0
 62
7
100
AcDbSpline
 70
8
 71
3
 72
8
 73
4
 74
0
 40
0
 40
0
 40
0
 40
0
 40
1
 40
1
 40
1
 40
1
 10
125.320065
 20
58.800000
 30
0.0
 10
124.132905
 20
52.267342
 30
0.0
 10
122.563237
 20
47.387400
 30
0.0
 10
119.882865
 20
41.896298
 30
0.0
  0
SPLINE
  5
10a
100
AcDbEntity
  8
0
 62
7
100
AcDbSpline
 70
8
 71
3
 72
8
 73
4
 74
0
 40
0
 40
0
 40
0
 40
0
 40
1
 40
1
 40
1
 40
1
 10
119.882865
 20
41.896298
 30
0.0
 10
116.956530
 20
35.901300
 30
0.0
 10
113.333520
 20
30.834248
 30
0.0
 10
108.515963
 20
25.998840
 30
0.0
  0
SPLINE
  5
10b
100
AcDbEntity
  8
0
 62
7
100
AcDbSpline
 70
8
 71
3
 72
8
 73
4
 74
0
 40
0
 40
0
 40
0
 40
0
 40
1
 40
1
 40
1
 40
1
 10
108.515963
 20
25.998840
 30
0.0
 10
98.919233
 20
16.366545
 30
0.0
 10
86.492198
 20
10.333530
 30
0.0
 10
72.996038
 20
8.754802
 30
0.0
  0
SPLINE
  5
10c
100
AcDbEntity
  8
0
 62
7
100
AcDbSpline
 70
8
 71
3
 72
8
 73
4
 74
0
 40
0
 40
0
 40
0
 40
0
 40
1
 40
1
 40
1
 40
1
 10
72.996038
 20
8.754802
 30
0.0
 10
69.745588
 20
8.374575
 30
0.0
 10
62.626164
 20
8.327310
 30
0.0
 10
59.400000
 20
8.664547
 30
0.0
  0
LWPOLYLINE
  5
10d
100
AcDbEntity
  8
0
 62
7
100
AcDbPolyline
 90
1
 70
1
 10
59.400000
 20
8.664547
 30
0.0
  0
SPLINE
  5
10e
100
AcDbEntity
  8
0
 62
7
100
AcDbSpline
 70
8
 71
3
 72
8
 73
4
 74
0
 40
0
 40
0
 40
0
 40
0
 40
1
 40
1
 40
1
 40
1
 10
72.752316
 20
15.960495
 30
0.0
 10
74.453839
 20
15.132413
 30
0.0
 10
74.494274
 20
15.125460
 30
0.0
 10
75.997650
 20
15.402465
 30
0.0
  0
SPLINE
  5
10f
100
AcDbEntity
  8
0
 62
7
100
AcDbSpline
 70
8
 71
3
 72
8
 73
4
 74
0
 40
0
 40
0
 40
0
 40
0
 40
1
 40
1
 40
1
 40
1
 10
75.997650
 20
15.402465
 30
0.0
 10
76.834942
 20
15.556740
 30
0.0
 10
77.520000
 20
15.750675
 30
0.0
 10
77.520000
 20
15.833430
 30
0.0
  0
SPLINE
  5
110
100
AcDbEntity
  8
0
 62
7
100
AcDbSpline
 70
8
 71
3
 72
8
 73
4
 74
0
 40
0
 40
0
 40
0
 40
0
 40
1
 40
1
 40
1
 40
1
 10
77.520000
 20
15.833430
 30
0.0
 10
77.520000
 20
15.916185
 30
0.0
 10
76.656000
 20
16.405140
 30
0.0
 10
75.600000
 20
16.920000
 30
0.0
  0
SPLINE
  5
111
100
AcDbEntity
  8
0
 62
7
100
AcDbSpline
 70
8
 71
3
 72
8
 73
4
 74
0
 40
0
 40
0
 40
0
 40
0
 40
1
 40
1
 40
1
 40
1
 10
75.600000
 20
16.920000
 30
0.0
 10
74.544000
 20
17.434860
 30
0.0
 10
73.680000
 20
17.921648
 30
0.0
 10
73.680000
 20
18.001747
 30
0.0
  0
SPLINE
  5
112
100
AcDbEntity
  8
0
 62
7
100
AcDbSpline
 70
8
 71
3
 72
8
 73
4
 74
0
 40
0
 40
0
 40
0
 40
0
 40
1
 40
1
 40
1
 40
1
 10
73.680000
 20
18.001747
 30
0.0
 10
73.680000
 20
18.081847
 30
0.0
 10
75.257377
 20
18.947130
 30
0.0
 10
77.185275
 20
19.924597
 30
0.0
  0
LWPOLYLINE
  5
113
100
AcDbEntity
  8
0
 62
7
100
AcDbPolyline
 90
3
 70
0
 10
68.639024
 20
15.599513
 30
0.0
 10
71.029325
 20
16.799018
 30
0.0
 10
72.752316
 20
15.960495
 30
0.0
  0
SPLINE
  5
114
100
AcDbEntity
  8
0
 62
7
100
AcDbSpline
 70
8
 71
3
 72
8
 73
4
 74
0
 40
0
 40
0
 40
0
 40
0
 40
1
 40
1
 40
1
 40
1
 10
86.415090
 20
19.715947
 30
0.0
 10
86.936107
 20
19.987522
 30
0.0
 10
87.410212
 20
20.287080
 30
0.0
 10
87.468652
 20
20.381632
 30
0.0
  0
SPLINE
  5
115
100
AcDbEntity
  8
0
 62
7
100
AcDbSpline
 70
8
 71
3
 72
8
 73
4
 74
0
 40
0
 40
0
 40
0
 40
0
 40
1
 40
1
 40
1
 40
1
 10
87.468652
 20
20.381632
 30
0.0
 10
87.527077
 20
20.476192
 30
0.0
 10
86.608552
 20
21.027225
 30
0.0
 10
85.427452
 20
21.606150
 30
0.0
  0
SPLINE
  5
116
100
AcDbEntity
  8
0
 62
7
100
AcDbSpline
 70
8
 71
3
 72
8
 73
4
 74
0
 40
0
 40
0
 40
0
 40
0
 40
1
 40
1
 40
1
 40
1
 10
85.427452
 20
21.606150
 30
0.0
 10
84.246353
 20
22.185075
 30
0.0
 10
83.280000
 20
22.722307
 30
0.0
 10
83.280000
 20
22.800000
 30
0.0
  0
SPLINE
  5
117
100
AcDbEntity
  8
0
 62
7
100
AcDbSpline
 70
8
 71
3
 72
8
 73
4
 74
0
 40
0
 40
0
 40
0
 40
0
 40
1
 40
1
 40
1
 40
1
 10
83.280000
 20
22.800000
 30
0.0
 10
83.280000
 20
22.877692
 30
0.0
 10
84.252000
 20
23.417693
 30
0.0
 10
85.440000
 20
24.000000
 30
0.0
  0
SPLINE
  5
118
100
AcDbEntity
  8
0
 62
7
100
AcDbSpline
 70
8
 71
3
 72
8
 73
4
 74
0
 40
0
 40
0
 40
0
 40
0
 40
1
 40
1
 40
1
 40
1
 10
85.440000
 20
24.000000
 30
0.0
 10
86.628000
 20
24.582307
 30
0.0
 10
87.600000
 20
25.124520
 30
0.0
 10
87.600000
 20
25.204920
 30
0.0
  0
SPLINE
  5
119
100
AcDbEntity
  8
0
 62
7
100
AcDbSpline
 70
8
 71
3
 72
8
 73
4
 74
0
 40
0
 40
0
 40
0
 40
0
 40
1
 40
1
 40
1
 40
1
 10
87.600000
 20
25.204920
 30
0.0
 10
87.600000
 20
25.415408
 30
0.0
 10
85.979287
 20
26.158005
 30
0.0
 10
85.491855
 20
26.170853
 30
0.0
  0
SPLINE
  5
11a
100
AcDbEntity
  8
0
 62
7
100
AcDbSpline
 70
8
 71
3
 72
8
 73
4
 74
0
 40
0
 40
0
 40
0
 40
0
 40
1
 40
1
 40
1
 40
1
 10
85.491855
 20
26.170853
 30
0.0
 10
85.265332
 20
26.176853
 30
0.0
 10
79.916947
 20
23.611830
 30
0.0
 10
73.606558
 20
20.470853
 30
0.0
  0
SPLINE
  5
11b
100
AcDbEntity
  8
0
 62
7
100
AcDbSpline
 70
8
 71
3
 72
8
 73
4
 74
0
 40
0
 40
0
 40
0
 40
0
 40
1
 40
1
 40
1
 40
1
 10
73.606558
 20
20.470853
 30
0.0
 10
62.682034
 20
15.033225
 30
0.0
 10
62.176814
 20
14.753017
 30
0.0
 10
63.046558
 20
14.614058
 30
0.0
  0
SPLINE
  5
11c
100
AcDbEntity
  8
0
 62
7
100
AcDbSpline
 70
8
 71
3
 72
8
 73
4
 74
0
 40
0
 40
0
 40
0
 40
0
 40
1
 40
1
 40
1
 40
1
 10
63.046558
 20
14.614058
 30
0.0
 10
65.457278
 20
14.228895
 30
0.0
 10
66.151526
 20
14.351228
 30
0.0
 10
68.639023
 20
15.599513
 30
0.0
  0
LWPOLYLINE
  5
11d
100
AcDbEntity
  8
0
 62
7
100
AcDbPolyline
 90
5
 70
0
 10
77.185275
 20
19.924597
 30
0.0
 10
80.690557
 20
21.701805
 30
0.0
 10
83.079165
 20
20.461995
 30
0.0
 10
85.467772
 20
19.222178
 30
0.0
 10
86.415090
 20
19.715947
 30
0.0
  0
LWPOLYLINE
  5
11e
100
AcDbEntity
  8
0
 62
7
100
AcDbPolyline
 90
1
 70
1
 10
68.639023
 20
15.599513
 30
0.0
  0
SPLINE
  5
11f
100
AcDbEntity
  8
0
 62
7
100
AcDbSpline
 70
8
 71
3
 72
8
 73
4
 74
0
 40
0
 40
0
 40
0
 40
0
 40
1
 40
1
 40
1
 40
1
 10
88.916168
 20
27.072885
 30
0.0
 10
90.832275
 20
26.118540
 30
0.0
 10
92.400000
 20
25.274947
 30
0.0
 10
92.400000
 20
25.198230
 30
0.0
  0
SPLINE
  5
120
100
AcDbEntity
  8
0
 62
7
100
AcDbSpline
 70
8
 71
3
 72
8
 73
4
 74
0
 40
0
 40
0
 40
0
 40
0
 40
1
 40
1
 40
1
 40
1
 10
92.400000
 20
25.198230
 30
0.0
 10
92.400000
 20
25.121512
 30
0.0
 10
91.428000
 20
24.582307
 30
0.0
 10
90.240000
 20
24.000000
 30
0.0
  0
SPLINE
  5
121
100
AcDbEntity
  8
0
 62
7
100
AcDbSpline
 70
8
 71
3
 72
8
 73
4
 74
0
 40
0
 40
0
 40
0
 40
0
 40
1
 40
1
 40
1
 40
1
 10
90.240000
 20
24.000000
 30
0.0
 10
89.052000
 20
23.417693
 30
0.0
 10
88.080000
 20
22.876995
 30
0.0
 10
88.080000
 20
22.798455
 30
0.0
  0
SPLINE
  5
122
100
AcDbEntity
  8
0
 62
7
100
AcDbSpline
 70
8
 71
3
 72
8
 73
4
 74
0
 40
0
 40
0
 40
0
 40
0
 40
1
 40
1
 40
1
 40
1
 10
88.080000
 20
22.798455
 30
0.0
 10
88.080000
 20
22.719908
 30
0.0
 10
88.550513
 20
22.427055
 30
0.0
 10
89.125583
 20
22.147665
 30
0.0
  0
LWPOLYLINE
  5
123
100
AcDbEntity
  8
0
 62
7
100
AcDbPolyline
 90
3
 70
0
 10
71.759676
 20
21.964028
 30
0.0
 10
85.432335
 20
28.808048
 30
0.0
 10
88.916168
 20
27.072885
 30
0.0
  0
SPLINE
  5
124
100
AcDbEntity
  8
0
 62
7
100
AcDbSpline
 70
8
 71
3
 72
8
 73
4
 74
0
 40
0
 40
0
 40
0
 40
0
 40
1
 40
1
 40
1
 40
1
 10
92.518733
 20
22.799370
 30
0.0
 10
94.269645
 20
23.664322
 30
0.0
 10
95.056110
 20
23.930692
 30
0.0
 10
95.613150
 20
23.847428
 30
0.0
  0
SPLINE
  5
125
100
AcDbEntity
  8
0
 62
7
100
AcDbSpline
 70
8
 71
3
 72
8
 73
4
 74
0
 40
0
 40
0
 40
0
 40
0
 40
1
 40
1
 40
1
 40
1
 10
95.613150
 20
23.847428
 30
0.0
 10
96.163050
 20
23.765235
 30
0.0
 10
96.549870
 20
23.891527
 30
0.0
 10
97.080000
 20
24.326385
 30
0.0
  0
SPLINE
  5
126
100
AcDbEntity
  8
0
 62
7
100
AcDbSpline
 70
8
 71
3
 72
8
 73
4
 74
0
 40
0
 40
0
 40
0
 40
0
 40
1
 40
1
 40
1
 40
1
 10
97.080000
 20
24.326385
 30
0.0
 10
97.476000
 20
24.651210
 30
0.0
 10
97.746000
 20
24.969787
 30
0.0
 10
97.680000
 20
25.034333
 30
0.0
  0
SPLINE
  5
127
100
AcDbEntity
  8
0
 62
7
100
AcDbSpline
 70
8
 71
3
 72
8
 73
4
 74
0
 40
0
 40
0
 40
0
 40
0
 40
1
 40
1
 40
1
 40
1
 10
97.680000
 20
25.034333
 30
0.0
 10
97.253115
 20
25.451805
 30
0.0
 10
71.354669
 20
38.158028
 30
0.0
 10
70.947113
 20
38.149943
 30
0.0
  0
SPLINE
  5
128
100
AcDbEntity
  8
0
 62
7
100
AcDbSpline
 70
8
 71
3
 72
8
 73
4
 74
0
 40
0
 40
0
 40
0
 40
0
 40
1
 40
1
 40
1
 40
1
 10
70.947113
 20
38.149943
 30
0.0
 10
70.668200
 20
38.144692
 30
0.0
 10
70.067114
 20
37.941315
 30
0.0
 10
69.611366
 20
37.698630
 30
0.0
  0
LWPOLYLINE
  5
129
100
AcDbEntity
  8
0
 62
7
100
AcDbPolyline
 90
3
 70
0
 10
89.125583
 20
22.147665
 30
0.0
 10
90.171165
 20
21.639683
 30
0.0
 10
92.518733
 20
22.799370
 30
0.0
  0
SPLINE
  5
12a
100
AcDbEntity
  8
0
 62
7
100
AcDbSpline
 70
8
 71
3
 72
8
 73
4
 74
0
 40
0
 40
0
 40
0
 40
0
 40
1
 40
1
 40
1
 40
1
 10
70.091366
 20
36.578445
 30
0.0
 10
70.811114
 20
36.205042
 30
0.0
 10
71.805000
 20
35.711407
 30
0.0
 10
72.300000
 20
35.481495
 30
0.0
  0
SPLINE
  5
12b
100
AcDbEntity
  8
0
 62
7
100
AcDbSpline
 70
8
 71
3
 72
8
 73
4
 74
0
 40
0
 40
0
 40
0
 40
0
 40
1
 40
1
 40
1
 40
1
 10
72.300000
 20
35.481495
 30
0.0
 10
72.795000
 20
35.251583
 30
0.0
 10
73.200000
 20
34.974510
 30
0.0
 10
73.200000
 20
34.865782
 30
0.0
  0
SPLINE
  5
12c
100
AcDbEntity
  8
0
 62
7
100
AcDbSpline
 70
8
 71
3
 72
8
 73
4
 74
0
 40
0
 40
0
 40
0
 40
0
 40
1
 40
1
 40
1
 40
1
 10
73.200000
 20
34.865782
 30
0.0
 10
73.200000
 20
34.757055
 30
0.0
 10
72.202560
 20
34.172767
 30
0.0
 10
70.983466
 20
33.567375
 30
0.0
  0
LWPOLYLINE
  5
12d
100
AcDbEntity
  8
0
 62
7
100
AcDbPolyline
 90
3
 70
0
 10
69.611366
 20
37.698630
 30
0.0
 10
68.782733
 20
37.257375
 30
0.0
 10
70.091366
 20
36.578445
 30
0.0
  0
SPLINE
  5
12e
100
AcDbEntity
  8
0
 62
7
100
AcDbSpline
 70
8
 71
3
 72
8
 73
4
 74
0
 40
0
 40
0
 40
0
 40
0
 40
1
 40
1
 40
1
 40
1
 10
79.315830
 20
31.962975
 30
0.0
 10
81.232125
 20
31.005900
 30
0.0
 10
82.800000
 20
30.144967
 30
0.0
 10
82.800000
 20
30.049793
 30
0.0
  0
SPLINE
  5
12f
100
AcDbEntity
  8
0
 62
7
100
AcDbSpline
 70
8
 71
3
 72
8
 73
4
 74
0
 40
0
 40
0
 40
0
 40
0
 40
1
 40
1
 40
1
 40
1
 10
82.800000
 20
30.049793
 30
0.0
 10
82.800000
 20
29.954618
 30
0.0
 10
76.424573
 20
26.691480
 30
0.0
 10
68.632378
 20
22.798372
 30
0.0
  0
LWPOLYLINE
  5
130
100
AcDbEntity
  8
0
 62
7
100
AcDbPolyline
 90
7
 70
0
 10
70.983466
 20
33.567375
 30
0.0
 10
68.766932
 20
32.466660
 30
0.0
 10
69.930504
 20
31.875322
 30
0.0
 10
71.094074
 20
31.283977
 30
0.0
 10
73.462870
 20
32.493547
 30
0.0
 10
75.831668
 20
33.703110
 30
0.0
 10
79.315830
 20
31.962975
 30
0.0
  0
SPLINE
  5
131
100
AcDbEntity
  8
0
 62
7
100
AcDbSpline
 70
8
 71
3
 72
8
 73
4
 74
0
 40
0
 40
0
 40
0
 40
0
 40
1
 40
1
 40
1
 40
1
 10
55.732378
 20
15.446933
 30
0.0
 10
56.429570
 20
15.296745
 30
0.0
 10
57.244580
 20
15.161745
 30
0.0
 10
57.543509
 20
15.146932
 30
0.0
  0
SPLINE
  5
132
100
AcDbEntity
  8
0
 62
7
100
AcDbSpline
 70
8
 71
3
 72
8
 73
4
 74
0
 40
0
 40
0
 40
0
 40
0
 40
1
 40
1
 40
1
 40
1
 10
57.543509
 20
15.146932
 30
0.0
 10
57.842438
 20
15.132158
 30
0.0
 10
64.239713
 20
18.199815
 30
0.0
 10
71.759676
 20
21.964028
 30
0.0
  0
LWPOLYLINE
  5
133
100
AcDbEntity
  8
0
 62
7
100
AcDbPolyline
 90
3
 70
0
 10
68.632378
 20
22.798372
 30
0.0
 10
54.464756
 20
15.720000
 30
0.0
 10
55.732378
 20
15.446933
 30
0.0
  0
SPLINE
  5
134
100
AcDbEntity
  8
0
 62
7
100
AcDbSpline
 70
8
 71
3
 72
8
 73
4
 74
0
 40
0
 40
0
 40
0
 40
0
 40
1
 40
1
 40
1
 40
1
 10
62.438995
 20
22.169055
 30
0.0
 10
68.555546
 20
25.254038
 30
0.0
 10
74.582746
 20
28.291050
 30
0.0
 10
75.832770
 20
28.917968
 30
0.0
  0
LWPOLYLINE
  5
135
100
AcDbEntity
  8
0
 62
7
100
AcDbPolyline
 90
1
 70
1
 10
71.759676
 20
21.964028
 30
0.0
  0
SPLINE
  5
136
100
AcDbEntity
  8
0
 62
7
100
AcDbSpline
 70
8
 71
3
 72
8
 73
4
 74
0
 40
0
 40
0
 40
0
 40
0
 40
1
 40
1
 40
1
 40
1
 10
65.289077
 20
29.379607
 30
0.0
 10
66.010085
 20
29.005560
 30
0.0
 10
67.005000
 20
28.511407
 30
0.0
 10
67.500000
 20
28.281495
 30
0.0
  0
SPLINE
  5
137
100
AcDbEntity
  8
0
 62
7
100
AcDbSpline
 70
8
 71
3
 72
8
 73
4
 74
0
 40
0
 40
0
 40
0
 40
0
 40
1
 40
1
 40
1
 40
1
 10
67.500000
 20
28.281495
 30
0.0
 10
67.995000
 20
28.051583
 30
0.0
 10
68.400000
 20
27.775463
 30
0.0
 10
68.400000
 20
27.667898
 30
0.0
  0
SPLINE
  5
138
100
AcDbEntity
  8
0
 62
7
100
AcDbSpline
 70
8
 71
3
 72
8
 73
4
 74
0
 40
0
 40
0
 40
0
 40
0
 40
1
 40
1
 40
1
 40
1
 10
68.400000
 20
27.667898
 30
0.0
 10
68.400000
 20
27.560333
 30
0.0
 10
66.833768
 20
26.691413
 30
0.0
 10
64.919482
 20
25.736963
 30
0.0
  0
LWPOLYLINE
  5
139
100
AcDbEntity
  8
0
 62
7
100
AcDbPolyline
 90
11
 70
0
 10
75.832770
 20
28.917968
 30
0.0
 10
78.105540
 20
30.057817
 30
0.0
 10
76.975155
 20
30.632295
 30
0.0
 10
75.844777
 20
31.206773
 30
0.0
 10
73.442388
 20
30.001200
 30
0.0
 10
71.040000
 20
28.795628
 30
0.0
 10
68.637612
 20
30.001200
 30
0.0
 10
66.235224
 20
31.206773
 30
0.0
 10
65.106689
 20
30.633233
 30
0.0
 10
63.978152
 20
30.059692
 30
0.0
 10
65.289077
 20
29.379607
 30
0.0
  0
SPLINE
  5
13a
100
AcDbEntity
  8
0
 62
7
100
AcDbSpline
 70
8
 71
3
 72
8
 73
4
 74
0
 40
0
 40
0
 40
0
 40
0
 40
1
 40
1
 40
1
 40
1
 10
43.559482
 20
32.938110
 30
0.0
 10
33.725767
 20
37.853190
 30
0.0
 10
25.680000
 20
41.931562
 30
0.0
 10
25.680000
 20
42.001148
 30
0.0
  0
SPLINE
  5
13b
100
AcDbEntity
  8
0
 62
7
100
AcDbSpline
 70
8
 71
3
 72
8
 73
4
 74
0
 40
0
 40
0
 40
0
 40
0
 40
1
 40
1
 40
1
 40
1
 10
25.680000
 20
42.001148
 30
0.0
 10
25.680000
 20
42.070747
 30
0.0
 10
27.264188
 20
42.917543
 30
0.0
 10
29.200416
 20
43.882935
 30
0.0
  0
LWPOLYLINE
  5
13c
100
AcDbEntity
  8
0
 62
7
100
AcDbPolyline
 90
3
 70
0
 10
64.919482
 20
25.736963
 30
0.0
 10
61.438963
 20
24.001598
 30
0.0
 10
43.559482
 20
32.938110
 30
0.0
  0
SPLINE
  5
13d
100
AcDbEntity
  8
0
 62
7
100
AcDbSpline
 70
8
 71
3
 72
8
 73
4
 74
0
 40
0
 40
0
 40
0
 40
0
 40
1
 40
1
 40
1
 40
1
 10
38.523874
 20
43.732822
 30
0.0
 10
39.102722
 20
44.014050
 30
0.0
 10
39.523124
 20
44.330227
 30
0.0
 10
39.458102
 20
44.435430
 30
0.0
  0
SPLINE
  5
13e
100
AcDbEntity
  8
0
 62
7
100
AcDbSpline
 70
8
 71
3
 72
8
 73
4
 74
0
 40
0
 40
0
 40
0
 40
0
 40
1
 40
1
 40
1
 40
1
 10
39.458102
 20
44.435430
 30
0.0
 10
39.393077
 20
44.540640
 30
0.0
 10
38.426408
 20
45.079365
 30
0.0
 10
37.309940
 20
45.632595
 30
0.0
  0
SPLINE
  5
13f
100
AcDbEntity
  8
0
 62
7
100
AcDbSpline
 70
8
 71
3
 72
8
 73
4
 74
0
 40
0
 40
0
 40
0
 40
0
 40
1
 40
1
 40
1
 40
1
 10
37.309940
 20
45.632595
 30
0.0
 10
36.193474
 20
46.185825
 30
0.0
 10
35.280000
 20
46.711455
 30
0.0
 10
35.280000
 20
46.800668
 30
0.0
  0
SPLINE
  5
140
100
AcDbEntity
  8
0
 62
7
100
AcDbSpline
 70
8
 71
3
 72
8
 73
4
 74
0
 40
0
 40
0
 40
0
 40
0
 40
1
 40
1
 40
1
 40
1
 10
35.280000
 20
46.800668
 30
0.0
 10
35.280000
 20
46.889872
 30
0.0
 10
36.251239
 20
47.439217
 30
0.0
 10
37.438308
 20
48.021428
 30
0.0
  0
SPLINE
  5
141
100
AcDbEntity
  8
0
 62
7
100
AcDbSpline
 70
8
 71
3
 72
8
 73
4
 74
0
 40
0
 40
0
 40
0
 40
0
 40
1
 40
1
 40
1
 40
1
 10
37.438308
 20
48.021428
 30
0.0
 10
38.625377
 20
48.603645
 30
0.0
 10
39.597376
 20
49.140997
 30
0.0
 10
39.598308
 20
49.215548
 30
0.0
  0
SPLINE
  5
142
100
AcDbEntity
  8
0
 62
7
100
AcDbSpline
 70
8
 71
3
 72
8
 73
4
 74
0
 40
0
 40
0
 40
0
 40
0
 40
1
 40
1
 40
1
 40
1
 10
39.598308
 20
49.215548
 30
0.0
 10
39.600933
 20
49.427385
 30
0.0
 10
37.952981
 20
50.160000
 30
0.0
 10
37.473816
 20
50.160000
 30
0.0
  0
SPLINE
  5
143
100
AcDbEntity
  8
0
 62
7
100
AcDbSpline
 70
8
 71
3
 72
8
 73
4
 74
0
 40
0
 40
0
 40
0
 40
0
 40
1
 40
1
 40
1
 40
1
 10
37.473816
 20
50.160000
 30
0.0
 10
37.147654
 20
50.160000
 30
0.0
 10
19.863199
 20
41.739338
 30
0.0
 10
19.482303
 20
41.394870
 30
0.0
  0
SPLINE
  5
144
100
AcDbEntity
  8
0
 62
7
100
AcDbSpline
 70
8
 71
3
 72
8
 73
4
 74
0
 40
0
 40
0
 40
0
 40
0
 40
1
 40
1
 40
1
 40
1
 10
19.482303
 20
41.394870
 30
0.0
 10
19.364228
 20
41.288093
 30
0.0
 10
20.124035
 20
39.890557
 30
0.0
 10
20.389295
 20
39.726615
 30
0.0
  0
SPLINE
  5
145
100
AcDbEntity
  8
0
 62
7
100
AcDbSpline
 70
8
 71
3
 72
8
 73
4
 74
0
 40
0
 40
0
 40
0
 40
0
 40
1
 40
1
 40
1
 40
1
 10
20.389295
 20
39.726615
 30
0.0
 10
20.517285
 20
39.647513
 30
0.0
 10
21.167912
 20
39.859425
 30
0.0
 10
21.835134
 20
40.197532
 30
0.0
  0
LWPOLYLINE
  5
146
100
AcDbEntity
  8
0
 62
7
100
AcDbPolyline
 90
5
 70
0
 10
29.200416
 20
43.882935
 30
0.0
 10
32.720834
 20
45.638190
 30
0.0
 10
35.096129
 20
44.429850
 30
0.0
 10
37.471424
 20
43.221510
 30
0.0
 10
38.523874
 20
43.732822
 30
0.0
  0
SPLINE
  5
147
100
AcDbEntity
  8
0
 62
7
100
AcDbSpline
 70
8
 71
3
 72
8
 73
4
 74
0
 40
0
 40
0
 40
0
 40
0
 40
1
 40
1
 40
1
 40
1
 10
40.924132
 20
31.917945
 30
0.0
 10
50.755860
 20
27.026062
 30
0.0
 10
58.800000
 20
22.944570
 30
0.0
 10
58.800000
 20
22.847970
 30
0.0
  0
SPLINE
  5
148
100
AcDbEntity
  8
0
 62
7
100
AcDbSpline
 70
8
 71
3
 72
8
 73
4
 74
0
 40
0
 40
0
 40
0
 40
0
 40
1
 40
1
 40
1
 40
1
 10
58.800000
 20
22.847970
 30
0.0
 10
58.800000
 20
22.751370
 30
0.0
 10
57.232541
 20
21.890797
 30
0.0
 10
55.316758
 20
20.935605
 30
0.0
  0
LWPOLYLINE
  5
149
100
AcDbEntity
  8
0
 62
7
100
AcDbPolyline
 90
3
 70
0
 10
21.835134
 20
40.197532
 30
0.0
 10
23.048265
 20
40.812270
 30
0.0
 10
40.924132
 20
31.917945
 30
0.0
  0
SPLINE
  5
14a
100
AcDbEntity
  8
0
 62
7
100
AcDbSpline
 70
8
 71
3
 72
8
 73
4
 74
0
 40
0
 40
0
 40
0
 40
0
 40
1
 40
1
 40
1
 40
1
 10
45.977213
 20
21.077422
 30
0.0
 10
45.386767
 20
20.790562
 30
0.0
 10
44.956918
 20
20.469705
 30
0.0
 10
45.021994
 20
20.364412
 30
0.0
  0
SPLINE
  5
14b
100
AcDbEntity
  8
0
 62
7
100
AcDbSpline
 70
8
 71
3
 72
8
 73
4
 74
0
 40
0
 40
0
 40
0
 40
0
 40
1
 40
1
 40
1
 40
1
 10
45.021994
 20
20.364412
 30
0.0
 10
45.087064
 20
20.259120
 30
0.0
 10
46.053739
 20
19.732935
 30
0.0
 10
47.170154
 20
19.195110
 30
0.0
  0
SPLINE
  5
14c
100
AcDbEntity
  8
0
 62
7
100
AcDbSpline
 70
8
 71
3
 72
8
 73
4
 74
0
 40
0
 40
0
 40
0
 40
0
 40
1
 40
1
 40
1
 40
1
 10
47.170154
 20
19.195110
 30
0.0
 10
48.286570
 20
18.657277
 30
0.0
 10
49.200000
 20
18.125917
 30
0.0
 10
49.200000
 20
18.014295
 30
0.0
  0
SPLINE
  5
14d
100
AcDbEntity
  8
0
 62
7
100
AcDbSpline
 70
8
 71
3
 72
8
 73
4
 74
0
 40
0
 40
0
 40
0
 40
0
 40
1
 40
1
 40
1
 40
1
 10
49.200000
 20
18.014295
 30
0.0
 10
49.200000
 20
17.902680
 30
0.0
 10
49.011000
 20
17.733390
 30
0.0
 10
48.780000
 20
17.638102
 30
0.0
  0
SPLINE
  5
14e
100
AcDbEntity
  8
0
 62
7
100
AcDbSpline
 70
8
 71
3
 72
8
 73
4
 74
0
 40
0
 40
0
 40
0
 40
0
 40
1
 40
1
 40
1
 40
1
 10
48.780000
 20
17.638102
 30
0.0
 10
48.458938
 20
17.505667
 30
0.0
 10
48.642679
 20
17.362657
 30
0.0
 10
49.560000
 20
17.031030
 30
0.0
  0
SPLINE
  5
14f
100
AcDbEntity
  8
0
 62
7
100
AcDbSpline
 70
8
 71
3
 72
8
 73
4
 74
0
 40
0
 40
0
 40
0
 40
0
 40
1
 40
1
 40
1
 40
1
 10
49.560000
 20
17.031030
 30
0.0
 10
50.220000
 20
16.792425
 30
0.0
 10
50.885546
 20
16.588830
 30
0.0
 10
51.038995
 20
16.578600
 30
0.0
  0
SPLINE
  5
150
100
AcDbEntity
  8
0
 62
7
100
AcDbSpline
 70
8
 71
3
 72
8
 73
4
 74
0
 40
0
 40
0
 40
0
 40
0
 40
1
 40
1
 40
1
 40
1
 10
51.038995
 20
16.578600
 30
0.0
 10
51.192442
 20
16.568400
 30
0.0
 10
56.322442
 20
19.084072
 30
0.0
 10
62.438995
 20
22.169055
 30
0.0
  0
LWPOLYLINE
  5
151
100
AcDbEntity
  8
0
 62
7
100
AcDbPolyline
 90
5
 70
0
 10
55.316758
 20
20.935605
 30
0.0
 10
51.833516
 20
19.198882
 30
0.0
 10
49.442132
 20
20.398927
 30
0.0
 10
47.050747
 20
21.598980
 30
0.0
 10
45.977213
 20
21.077422
 30
0.0
  0
SPLINE
  5
152
100
AcDbEntity
  8
0
 62
7
100
AcDbSpline
 70
8
 71
3
 72
8
 73
4
 74
0
 40
0
 40
0
 40
0
 40
0
 40
1
 40
1
 40
1
 40
1
 10
82.109827
 20
16.923997
 30
0.0
 10
82.687418
 20
17.124202
 30
0.0
 10
83.322000
 20
17.349562
 30
0.0
 10
83.520000
 20
17.424802
 30
0.0
  0
SPLINE
  5
153
100
AcDbEntity
  8
0
 62
7
100
AcDbSpline
 70
8
 71
3
 72
8
 73
4
 74
0
 40
0
 40
0
 40
0
 40
0
 40
1
 40
1
 40
1
 40
1
 10
83.520000
 20
17.424802
 30
0.0
 10
83.753070
 20
17.513370
 30
0.0
 10
83.308350
 20
17.851837
 30
0.0
 10
82.258725
 20
18.384750
 30
0.0
  0
LWPOLYLINE
  5
154
100
AcDbEntity
  8
0
 62
7
100
AcDbPolyline
 90
1
 70
1
 10
62.438995
 20
22.169055
 30
0.0
  0
SPLINE
  5
155
100
AcDbEntity
  8
0
 62
7
100
AcDbSpline
 70
8
 71
3
 72
8
 73
4
 74
0
 40
0
 40
0
 40
0
 40
0
 40
1
 40
1
 40
1
 40
1
 10
79.521817
 20
18.640928
 30
0.0
 10
78.316665
 20
18.028448
 30
0.0
 10
78.295327
 20
18.090818
 30
0.0
 10
80.040000
 20
17.126355
 30
0.0
  0
SPLINE
  5
156
100
AcDbEntity
  8
0
 62
7
100
AcDbSpline
 70
8
 71
3
 72
8
 73
4
 74
0
 40
0
 40
0
 40
0
 40
0
 40
1
 40
1
 40
1
 40
1
 10
80.040000
 20
17.126355
 30
0.0
 10
80.568000
 20
16.834470
 30
0.0
 10
81.013418
 20
16.587638
 30
0.0
 10
81.029828
 20
16.577835
 30
0.0
  0
SPLINE
  5
157
100
AcDbEntity
  8
0
 62
7
100
AcDbSpline
 70
8
 71
3
 72
8
 73
4
 74
0
 40
0
 40
0
 40
0
 40
0
 40
1
 40
1
 40
1
 40
1
 10
81.029828
 20
16.577835
 30
0.0
 10
81.046253
 20
16.568010
 30
0.0
 10
81.532230
 20
16.723800
 30
0.0
 10
82.109827
 20
16.923998
 30
0.0
  0
LWPOLYLINE
  5
158
100
AcDbEntity
  8
0
 62
7
100
AcDbPolyline
 90
3
 70
0
 10
82.258725
 20
18.384750
 30
0.0
 10
80.637450
 20
19.207905
 30
0.0
 10
79.521817
 20
18.640928
 30
0.0
  0
LWPOLYLINE
  5
159
100
AcDbEntity
  8
0
 62
7
100
AcDbPolyline
 90
1
 70
1
 10
82.109827
 20
16.923998
 30
0.0
  0
SPLINE
  5
15a
100
AcDbEntity
  8
0
 62
7
100
AcDbSpline
 70
8
 71
3
 72
8
 73
4
 74
0
 40
0
 40
0
 40
0
 40
0
 40
1
 40
1
 40
1
 40
1
 10
52.934551
 20
22.163287
 30
0.0
 10
53.507525
 20
22.447477
 30
0.0
 10
53.981650
 20
22.734390
 30
0.0
 10
53.988161
 20
22.800870
 30
0.0
  0
SPLINE
  5
15b
100
AcDbEntity
  8
0
 62
7
100
AcDbSpline
 70
8
 71
3
 72
8
 73
4
 74
0
 40
0
 40
0
 40
0
 40
0
 40
1
 40
1
 40
1
 40
1
 10
53.988161
 20
22.800870
 30
0.0
 10
53.994686
 20
22.867320
 30
0.0
 10
47.036306
 20
26.403082
 30
0.0
 10
38.525129
 20
30.658057
 30
0.0
  0
SPLINE
  5
15c
100
AcDbEntity
  8
0
 62
7
100
AcDbSpline
 70
8
 71
3
 72
8
 73
4
 74
0
 40
0
 40
0
 40
0
 40
0
 40
1
 40
1
 40
1
 40
1
 10
38.525129
 20
30.658057
 30
0.0
 10
24.405749
 20
37.716735
 30
0.0
 10
22.997250
 20
38.370232
 30
0.0
 10
22.445128
 20
38.118667
 30
0.0
  0
SPLINE
  5
15d
100
AcDbEntity
  8
0
 62
7
100
AcDbSpline
 70
8
 71
3
 72
8
 73
4
 74
0
 40
0
 40
0
 40
0
 40
0
 40
1
 40
1
 40
1
 40
1
 10
22.445128
 20
38.118667
 30
0.0
 10
22.112307
 20
37.967025
 30
0.0
 10
21.843884
 20
37.725285
 30
0.0
 10
21.848631
 20
37.581472
 30
0.0
  0
SPLINE
  5
15e
100
AcDbEntity
  8
0
 62
7
100
AcDbSpline
 70
8
 71
3
 72
8
 73
4
 74
0
 40
0
 40
0
 40
0
 40
0
 40
1
 40
1
 40
1
 40
1
 10
21.848631
 20
37.581472
 30
0.0
 10
21.866849
 20
37.029570
 30
0.0
 10
22.967819
 20
36.003855
 30
0.0
 10
24.060000
 20
35.521260
 30
0.0
  0
SPLINE
  5
15f
100
AcDbEntity
  8
0
 62
7
100
AcDbSpline
 70
8
 71
3
 72
8
 73
4
 74
0
 40
0
 40
0
 40
0
 40
0
 40
1
 40
1
 40
1
 40
1
 10
24.060000
 20
35.521260
 30
0.0
 10
25.305848
 20
34.970767
 30
0.0
 10
25.442832
 20
34.746232
 30
0.0
 10
24.733874
 20
34.416675
 30
0.0
  0
SPLINE
  5
160
100
AcDbEntity
  8
0
 62
7
100
AcDbSpline
 70
8
 71
3
 72
8
 73
4
 74
0
 40
0
 40
0
 40
0
 40
0
 40
1
 40
1
 40
1
 40
1
 10
24.733874
 20
34.416675
 30
0.0
 10
24.292193
 20
34.211362
 30
0.0
 10
24.306218
 20
34.157287
 30
0.0
 10
25.001312
 20
33.385507
 30
0.0
  0
LWPOLYLINE
  5
161
100
AcDbEntity
  8
0
 62
7
100
AcDbPolyline
 90
5
 70
0
 10
44.644918
 20
22.837890
 30
0.0
 10
47.021059
 20
24.075772
 30
0.0
 10
49.456920
 20
22.861177
 30
0.0
 10
51.892781
 20
21.646582
 30
0.0
 10
52.934551
 20
22.163287
 30
0.0
  0
SPLINE
  5
162
100
AcDbEntity
  8
0
 62
7
100
AcDbSpline
 70
8
 71
3
 72
8
 73
4
 74
0
 40
0
 40
0
 40
0
 40
0
 40
1
 40
1
 40
1
 40
1
 10
31.322096
 20
31.861732
 30
0.0
 10
33.234943
 20
30.908002
 30
0.0
 10
34.800000
 20
30.069015
 30
0.0
 10
34.800000
 20
29.997322
 30
0.0
  0
SPLINE
  5
163
100
AcDbEntity
  8
0
 62
7
100
AcDbSpline
 70
8
 71
3
 72
8
 73
4
 74
0
 40
0
 40
0
 40
0
 40
0
 40
1
 40
1
 40
1
 40
1
 10
34.800000
 20
29.997322
 30
0.0
 10
34.800000
 20
29.925622
 30
0.0
 10
33.867792
 20
29.404642
 30
0.0
 10
32.728426
 20
28.839577
 30
0.0
  0
LWPOLYLINE
  5
164
100
AcDbEntity
  8
0
 62
7
100
AcDbPolyline
 90
5
 70
0
 10
25.001312
 20
33.385507
 30
0.0
 10
25.734874
 20
32.571015
 30
0.0
 10
26.789532
 20
33.083407
 30
0.0
 10
27.844193
 20
33.595800
 30
0.0
 10
31.322096
 20
31.861732
 30
0.0
  0
SPLINE
  5
165
100
AcDbEntity
  8
0
 62
7
100
AcDbSpline
 70
8
 71
3
 72
8
 73
4
 74
0
 40
0
 40
0
 40
0
 40
0
 40
1
 40
1
 40
1
 40
1
 10
31.333328
 20
27.106087
 30
0.0
 10
31.705390
 20
26.717737
 30
0.0
 10
32.140217
 20
26.400000
 30
0.0
 10
32.299613
 20
26.400000
 30
0.0
  0
SPLINE
  5
166
100
AcDbEntity
  8
0
 62
7
100
AcDbSpline
 70
8
 71
3
 72
8
 73
4
 74
0
 40
0
 40
0
 40
0
 40
0
 40
1
 40
1
 40
1
 40
1
 10
32.299613
 20
26.400000
 30
0.0
 10
32.459006
 20
26.400000
 30
0.0
 10
33.682184
 20
26.940262
 30
0.0
 10
35.017784
 20
27.600585
 30
0.0
  0
LWPOLYLINE
  5
167
100
AcDbEntity
  8
0
 62
7
100
AcDbPolyline
 90
3
 70
0
 10
32.728426
 20
28.839577
 30
0.0
 10
30.656849
 20
27.812182
 30
0.0
 10
31.333328
 20
27.106087
 30
0.0
  0
SPLINE
  5
168
100
AcDbEntity
  8
0
 62
7
100
AcDbSpline
 70
8
 71
3
 72
8
 73
4
 74
0
 40
0
 40
0
 40
0
 40
0
 40
1
 40
1
 40
1
 40
1
 10
40.923072
 20
27.069442
 30
0.0
 10
42.835382
 20
26.116995
 30
0.0
 10
44.400000
 20
25.274947
 30
0.0
 10
44.400000
 20
25.198230
 30
0.0
  0
SPLINE
  5
169
100
AcDbEntity
  8
0
 62
7
100
AcDbSpline
 70
8
 71
3
 72
8
 73
4
 74
0
 40
0
 40
0
 40
0
 40
0
 40
1
 40
1
 40
1
 40
1
 10
44.400000
 20
25.198230
 30
0.0
 10
44.400000
 20
25.121512
 30
0.0
 10
43.428000
 20
24.582307
 30
0.0
 10
42.240000
 20
24.000000
 30
0.0
  0
SPLINE
  5
16a
100
AcDbEntity
  8
0
 62
7
100
AcDbSpline
 70
8
 71
3
 72
8
 73
4
 74
0
 40
0
 40
0
 40
0
 40
0
 40
1
 40
1
 40
1
 40
1
 10
42.240000
 20
24.000000
 30
0.0
 10
41.052000
 20
23.417692
 30
0.0
 10
40.080000
 20
22.876755
 30
0.0
 10
40.080000
 20
22.797915
 30
0.0
  0
SPLINE
  5
16b
100
AcDbEntity
  8
0
 62
7
100
AcDbSpline
 70
8
 71
3
 72
8
 73
4
 74
0
 40
0
 40
0
 40
0
 40
0
 40
1
 40
1
 40
1
 40
1
 10
40.080000
 20
22.797915
 30
0.0
 10
40.080000
 20
22.684897
 30
0.0
 10
41.879897
 20
21.677835
 30
0.0
 10
42.194388
 20
21.614887
 30
0.0
  0
SPLINE
  5
16c
100
AcDbEntity
  8
0
 62
7
100
AcDbSpline
 70
8
 71
3
 72
8
 73
4
 74
0
 40
0
 40
0
 40
0
 40
0
 40
1
 40
1
 40
1
 40
1
 10
42.194388
 20
21.614887
 30
0.0
 10
42.235300
 20
21.606712
 30
0.0
 10
43.338038
 20
22.157047
 30
0.0
 10
44.644918
 20
22.837890
 30
0.0
  0
LWPOLYLINE
  5
16d
100
AcDbEntity
  8
0
 62
7
100
AcDbPolyline
 90
3
 70
0
 10
35.017784
 20
27.600585
 30
0.0
 10
37.446144
 20
28.801170
 30
0.0
 10
40.923072
 20
27.069442
 30
0.0
  0
SPLINE
  5
16e
100
AcDbEntity
  8
0
 62
7
100
AcDbSpline
 70
8
 71
3
 72
8
 73
4
 74
0
 40
0
 40
0
 40
0
 40
0
 40
1
 40
1
 40
1
 40
1
 10
37.960858
 20
24.275527
 30
0.0
 10
38.862386
 20
24.691072
 30
0.0
 10
39.600000
 20
25.103070
 30
0.0
 10
39.600000
 20
25.191082
 30
0.0
  0
SPLINE
  5
16f
100
AcDbEntity
  8
0
 62
7
100
AcDbSpline
 70
8
 71
3
 72
8
 73
4
 74
0
 40
0
 40
0
 40
0
 40
0
 40
1
 40
1
 40
1
 40
1
 10
39.600000
 20
25.191082
 30
0.0
 10
39.600000
 20
25.451295
 30
0.0
 10
37.948747
 20
26.160960
 30
0.0
 10
37.371856
 20
26.148675
 30
0.0
  0
SPLINE
  5
170
100
AcDbEntity
  8
0
 62
7
100
AcDbSpline
 70
8
 71
3
 72
8
 73
4
 74
0
 40
0
 40
0
 40
0
 40
0
 40
1
 40
1
 40
1
 40
1
 10
37.371856
 20
26.148675
 30
0.0
 10
37.079335
 20
26.142675
 30
0.0
 10
36.255055
 20
25.834538
 30
0.0
 10
35.540122
 20
25.464427
 30
0.0
  0
LWPOLYLINE
  5
171
100
AcDbEntity
  8
0
 62
7
100
AcDbPolyline
 90
1
 70
1
 10
44.644918
 20
22.837890
 30
0.0
  0
SPLINE
  5
172
100
AcDbEntity
  8
0
 62
7
100
AcDbSpline
 70
8
 71
3
 72
8
 73
4
 74
0
 40
0
 40
0
 40
0
 40
0
 40
1
 40
1
 40
1
 40
1
 10
35.175835
 20
24.155753
 30
0.0
 10
35.690410
 20
23.806088
 30
0.0
 10
36.158741
 20
23.520000
 30
0.0
 10
36.216572
 20
23.520000
 30
0.0
  0
SPLINE
  5
173
100
AcDbEntity
  8
0
 62
7
100
AcDbSpline
 70
8
 71
3
 72
8
 73
4
 74
0
 40
0
 40
0
 40
0
 40
0
 40
1
 40
1
 40
1
 40
1
 10
36.216572
 20
23.520000
 30
0.0
 10
36.274404
 20
23.520000
 30
0.0
 10
37.059331
 20
23.859990
 30
0.0
 10
37.960858
 20
24.275528
 30
0.0
  0
LWPOLYLINE
  5
174
100
AcDbEntity
  8
0
 62
7
100
AcDbPolyline
 90
3
 70
0
 10
35.540122
 20
25.464427
 30
0.0
 10
34.240246
 20
24.791497
 30
0.0
 10
35.175835
 20
24.155753
 30
0.0
  0
LWPOLYLINE
  5
175
100
AcDbEntity
  8
0
 62
7
100
AcDbPolyline
 90
1
 70
1
 10
37.960858
 20
24.275528
 30
0.0
  0
SPLINE
  5
176
100
AcDbEntity
  8
0
 62
7
100
AcDbSpline
 70
8
 71
3
 72
8
 73
4
 74
0
 40
0
 40
0
 40
0
 40
0
 40
1
 40
1
 40
1
 40
1
 10
61.478736
 20
28.776218
 30
0.0
 10
60.269431
 20
29.376750
 30
0.0
 10
59.280000
 20
29.950687
 30
0.0
 10
59.280000
 20
30.051637
 30
0.0
  0
SPLINE
  5
177
100
AcDbEntity
  8
0
 62
7
100
AcDbSpline
 70
8
 71
3
 72
8
 73
4
 74
0
 40
0
 40
0
 40
0
 40
0
 40
1
 40
1
 40
1
 40
1
 10
59.280000
 20
30.051637
 30
0.0
 10
59.280000
 20
30.152588
 30
0.0
 10
60.275746
 20
30.735277
 30
0.0
 10
61.492768
 20
31.346505
 30
0.0
  0
LWPOLYLINE
  5
178
100
AcDbEntity
  8
0
 62
7
100
AcDbPolyline
 90
3
 70
0
 10
62.528508
 20
27.042172
 30
0.0
 10
63.677474
 20
27.684337
 30
0.0
 10
61.478736
 20
28.776218
 30
0.0
  0
SPLINE
  5
179
100
AcDbEntity
  8
0
 62
7
100
AcDbSpline
 70
8
 71
3
 72
8
 73
4
 74
0
 40
0
 40
0
 40
0
 40
0
 40
1
 40
1
 40
1
 40
1
 10
53.163242
 20
32.935605
 30
0.0
 10
51.247460
 20
33.890797
 30
0.0
 10
49.680000
 20
34.752443
 30
0.0
 10
49.680000
 20
34.850370
 30
0.0
  0
SPLINE
  5
17a
100
AcDbEntity
  8
0
 62
7
100
AcDbSpline
 70
8
 71
3
 72
8
 73
4
 74
0
 40
0
 40
0
 40
0
 40
0
 40
1
 40
1
 40
1
 40
1
 10
49.680000
 20
34.850370
 30
0.0
 10
49.680000
 20
34.948290
 30
0.0
 10
57.716758
 20
39.045255
 30
0.0
 10
67.539460
 20
43.954725
 30
0.0
  0
LWPOLYLINE
  5
17b
100
AcDbEntity
  8
0
 62
7
100
AcDbPolyline
 90
7
 70
0
 10
61.492768
 20
31.346505
 30
0.0
 10
63.705538
 20
32.457818
 30
0.0
 10
62.575157
 20
33.032295
 30
0.0
 10
61.444776
 20
33.606773
 30
0.0
 10
59.045630
 20
32.402828
 30
0.0
 10
56.646485
 20
31.198883
 30
0.0
 10
53.163242
 20
32.935605
 30
0.0
  0
SPLINE
  5
17c
100
AcDbEntity
  8
0
 62
7
100
AcDbSpline
 70
8
 71
3
 72
8
 73
4
 74
0
 40
0
 40
0
 40
0
 40
0
 40
1
 40
1
 40
1
 40
1
 10
88.719458
 20
51.249900
 30
0.0
 10
90.545760
 20
50.352773
 30
0.0
 10
92.173432
 20
49.512615
 30
0.0
 10
92.336520
 20
49.382880
 30
0.0
  0
SPLINE
  5
17d
100
AcDbEntity
  8
0
 62
7
100
AcDbSpline
 70
8
 71
3
 72
8
 73
4
 74
0
 40
0
 40
0
 40
0
 40
0
 40
1
 40
1
 40
1
 40
1
 10
92.336520
 20
49.382880
 30
0.0
 10
92.550472
 20
49.212682
 30
0.0
 10
92.082720
 20
48.869453
 30
0.0
 10
90.656520
 20
48.150150
 30
0.0
  0
SPLINE
  5
17e
100
AcDbEntity
  8
0
 62
7
100
AcDbSpline
 70
8
 71
3
 72
8
 73
4
 74
0
 40
0
 40
0
 40
0
 40
0
 40
1
 40
1
 40
1
 40
1
 10
90.656520
 20
48.150150
 30
0.0
 10
87.778748
 20
46.698742
 30
0.0
 10
87.865560
 20
46.812007
 30
0.0
 10
89.154705
 20
46.190700
 30
0.0
  0
LWPOLYLINE
  5
17f
100
AcDbEntity
  8
0
 62
7
100
AcDbPolyline
 90
3
 70
0
 10
67.539460
 20
43.954725
 30
0.0
 10
85.398922
 20
52.881045
 30
0.0
 10
88.719458
 20
51.249900
 30
0.0
  0
SPLINE
  5
180
100
AcDbEntity
  8
0
 62
7
100
AcDbSpline
 70
8
 71
3
 72
8
 73
4
 74
0
 40
0
 40
0
 40
0
 40
0
 40
1
 40
1
 40
1
 40
1
 10
100.935097
 20
46.195417
 30
0.0
 10
101.761478
 20
46.593697
 30
0.0
 10
101.949330
 20
46.779697
 30
0.0
 10
101.712412
 20
46.965075
 30
0.0
  0
SPLINE
  5
181
100
AcDbEntity
  8
0
 62
7
100
AcDbSpline
 70
8
 71
3
 72
8
 73
4
 74
0
 40
0
 40
0
 40
0
 40
0
 40
1
 40
1
 40
1
 40
1
 10
101.712412
 20
46.965075
 30
0.0
 10
101.540588
 20
47.099520
 30
0.0
 10
94.560540
 20
50.625262
 30
0.0
 10
86.201205
 20
54.800055
 30
0.0
  0
LWPOLYLINE
  5
182
100
AcDbEntity
  8
0
 62
7
100
AcDbPolyline
 90
7
 70
0
 10
89.154705
 20
46.190700
 30
0.0
 10
90.286695
 20
45.645128
 30
0.0
 10
92.684168
 20
46.845345
 30
0.0
 10
95.081648
 20
48.045563
 30
0.0
 10
97.463505
 20
46.857892
 30
0.0
 10
99.845370
 20
45.670222
 30
0.0
 10
100.935097
 20
46.195417
 30
0.0
  0
SPLINE
  5
183
100
AcDbEntity
  8
0
 62
7
100
AcDbSpline
 70
8
 71
3
 72
8
 73
4
 74
0
 40
0
 40
0
 40
0
 40
0
 40
1
 40
1
 40
1
 40
1
 10
70.061206
 20
61.910412
 30
0.0
 10
69.543542
 20
61.646318
 30
0.0
 10
69.120000
 20
61.346656
 30
0.0
 10
69.120000
 20
61.244494
 30
0.0
  0
SPLINE
  5
184
100
AcDbEntity
  8
0
 62
7
100
AcDbSpline
 70
8
 71
3
 72
8
 73
4
 74
0
 40
0
 40
0
 40
0
 40
0
 40
1
 40
1
 40
1
 40
1
 10
69.120000
 20
61.244494
 30
0.0
 10
69.120000
 20
61.142330
 30
0.0
 10
70.091588
 20
60.582511
 30
0.0
 10
71.279080
 20
60.000451
 30
0.0
  0
SPLINE
  5
185
100
AcDbEntity
  8
0
 62
7
100
AcDbSpline
 70
8
 71
3
 72
8
 73
4
 74
0
 40
0
 40
0
 40
0
 40
0
 40
1
 40
1
 40
1
 40
1
 10
71.279080
 20
60.000451
 30
0.0
 10
72.466574
 20
59.418392
 30
0.0
 10
73.356960
 20
58.860960
 30
0.0
 10
73.257715
 20
58.761716
 30
0.0
  0
SPLINE
  5
186
100
AcDbEntity
  8
0
 62
7
100
AcDbSpline
 70
8
 71
3
 72
8
 73
4
 74
0
 40
0
 40
0
 40
0
 40
0
 40
1
 40
1
 40
1
 40
1
 10
73.257715
 20
58.761716
 30
0.0
 10
73.158473
 20
58.662473
 30
0.0
 10
72.186886
 20
58.146164
 30
0.0
 10
71.098636
 20
57.614362
 30
0.0
  0
SPLINE
  5
187
100
AcDbEntity
  8
0
 62
7
100
AcDbSpline
 70
8
 71
3
 72
8
 73
4
 74
0
 40
0
 40
0
 40
0
 40
0
 40
1
 40
1
 40
1
 40
1
 10
71.098636
 20
57.614362
 30
0.0
 10
70.010386
 20
57.082562
 30
0.0
 10
69.120000
 20
56.557778
 30
0.0
 10
69.120000
 20
56.448180
 30
0.0
  0
SPLINE
  5
188
100
AcDbEntity
  8
0
 62
7
100
AcDbSpline
 70
8
 71
3
 72
8
 73
4
 74
0
 40
0
 40
0
 40
0
 40
0
 40
1
 40
1
 40
1
 40
1
 10
69.120000
 20
56.448180
 30
0.0
 10
69.120000
 20
56.234490
 30
0.0
 10
70.652316
 20
55.440000
 30
0.0
 10
71.064456
 20
55.440000
 30
0.0
  0
SPLINE
  5
189
100
AcDbEntity
  8
0
 62
7
100
AcDbSpline
 70
8
 71
3
 72
8
 73
4
 74
0
 40
0
 40
0
 40
0
 40
0
 40
1
 40
1
 40
1
 40
1
 10
71.064456
 20
55.440000
 30
0.0
 10
71.200948
 20
55.440000
 30
0.0
 10
72.330991
 20
55.949070
 30
0.0
 10
73.575658
 20
56.571270
 30
0.0
  0
LWPOLYLINE
  5
18a
100
AcDbEntity
  8
0
 62
7
100
AcDbPolyline
 90
3
 70
0
 10
86.201205
 20
54.800055
 30
0.0
 10
71.002409
 20
62.390578
 30
0.0
 10
70.061206
 20
61.910412
 30
0.0
  0
SPLINE
  5
18b
100
AcDbEntity
  8
0
 62
7
100
AcDbSpline
 70
8
 71
3
 72
8
 73
4
 74
0
 40
0
 40
0
 40
0
 40
0
 40
1
 40
1
 40
1
 40
1
 10
79.434345
 20
55.911270
 30
0.0
 10
81.411960
 20
54.926070
 30
0.0
 10
83.030918
 20
54.066000
 30
0.0
 10
83.032027
 20
54.000000
 30
0.0
  0
SPLINE
  5
18c
100
AcDbEntity
  8
0
 62
7
100
AcDbSpline
 70
8
 71
3
 72
8
 73
4
 74
0
 40
0
 40
0
 40
0
 40
0
 40
1
 40
1
 40
1
 40
1
 10
83.032027
 20
54.000000
 30
0.0
 10
83.033528
 20
53.934000
 30
0.0
 10
74.931670
 20
49.859325
 30
0.0
 10
65.028761
 20
44.945175
 30
0.0
  0
LWPOLYLINE
  5
18d
100
AcDbEntity
  8
0
 62
7
100
AcDbPolyline
 90
3
 70
0
 10
73.575658
 20
56.571270
 30
0.0
 10
75.838688
 20
57.702544
 30
0.0
 10
79.434345
 20
55.911270
 30
0.0
  0
SPLINE
  5
18e
100
AcDbEntity
  8
0
 62
7
100
AcDbSpline
 70
8
 71
3
 72
8
 73
4
 74
0
 40
0
 40
0
 40
0
 40
0
 40
1
 40
1
 40
1
 40
1
 10
43.551737
 20
37.741343
 30
0.0
 10
41.642282
 20
38.693385
 30
0.0
 10
40.080000
 20
39.557670
 30
0.0
 10
40.080000
 20
39.661980
 30
0.0
  0
SPLINE
  5
18f
100
AcDbEntity
  8
0
 62
7
100
AcDbSpline
 70
8
 71
3
 72
8
 73
4
 74
0
 40
0
 40
0
 40
0
 40
0
 40
1
 40
1
 40
1
 40
1
 10
40.080000
 20
39.661980
 30
0.0
 10
40.080000
 20
39.766290
 30
0.0
 10
41.052000
 20
40.301805
 30
0.0
 10
42.240000
 20
40.852020
 30
0.0
  0
SPLINE
  5
190
100
AcDbEntity
  8
0
 62
7
100
AcDbSpline
 70
8
 71
3
 72
8
 73
4
 74
0
 40
0
 40
0
 40
0
 40
0
 40
1
 40
1
 40
1
 40
1
 10
42.240000
 20
40.852020
 30
0.0
 10
43.428000
 20
41.402242
 30
0.0
 10
44.400000
 20
41.919622
 30
0.0
 10
44.400000
 20
42.001755
 30
0.0
  0
SPLINE
  5
191
100
AcDbEntity
  8
0
 62
7
100
AcDbSpline
 70
8
 71
3
 72
8
 73
4
 74
0
 40
0
 40
0
 40
0
 40
0
 40
1
 40
1
 40
1
 40
1
 10
44.400000
 20
42.001755
 30
0.0
 10
44.400000
 20
42.235568
 30
0.0
 10
42.757252
 20
42.960000
 30
0.0
 10
42.227062
 20
42.960000
 30
0.0
  0
SPLINE
  5
192
100
AcDbEntity
  8
0
 62
7
100
AcDbSpline
 70
8
 71
3
 72
8
 73
4
 74
0
 40
0
 40
0
 40
0
 40
0
 40
1
 40
1
 40
1
 40
1
 10
42.227062
 20
42.960000
 30
0.0
 10
41.964902
 20
42.960000
 30
0.0
 10
40.780666
 20
42.472965
 30
0.0
 10
39.595424
 20
41.877697
 30
0.0
  0
LWPOLYLINE
  5
193
100
AcDbEntity
  8
0
 62
7
100
AcDbPolyline
 90
3
 70
0
 10
65.028761
 20
44.945175
 30
0.0
 10
47.023474
 20
36.010350
 30
0.0
 10
43.551737
 20
37.741343
 30
0.0
  0
SPLINE
  5
194
100
AcDbEntity
  8
0
 62
7
100
AcDbSpline
 70
8
 71
3
 72
8
 73
4
 74
0
 40
0
 40
0
 40
0
 40
0
 40
1
 40
1
 40
1
 40
1
 10
31.661638
 20
42.710632
 30
0.0
 10
31.126464
 20
42.437610
 30
0.0
 10
30.724870
 20
42.105390
 30
0.0
 10
30.769205
 20
41.972385
 30
0.0
  0
SPLINE
  5
195
100
AcDbEntity
  8
0
 62
7
100
AcDbSpline
 70
8
 71
3
 72
8
 73
4
 74
0
 40
0
 40
0
 40
0
 40
0
 40
1
 40
1
 40
1
 40
1
 10
30.769205
 20
41.972385
 30
0.0
 10
30.813545
 20
41.839372
 30
0.0
 10
37.705610
 20
38.297572
 30
0.0
 10
46.084910
 20
34.101720
 30
0.0
  0
SPLINE
  5
196
100
AcDbEntity
  8
0
 62
7
100
AcDbSpline
 70
8
 71
3
 72
8
 73
4
 74
0
 40
0
 40
0
 40
0
 40
0
 40
1
 40
1
 40
1
 40
1
 10
46.084910
 20
34.101720
 30
0.0
 10
54.464208
 20
29.905860
 30
0.0
 10
61.333396
 20
26.456490
 30
0.0
 10
61.349772
 20
26.436442
 30
0.0
  0
SPLINE
  5
197
100
AcDbEntity
  8
0
 62
7
100
AcDbSpline
 70
8
 71
3
 72
8
 73
4
 74
0
 40
0
 40
0
 40
0
 40
0
 40
1
 40
1
 40
1
 40
1
 10
61.349772
 20
26.436442
 30
0.0
 10
61.366137
 20
26.416417
 30
0.0
 10
61.896578
 20
26.688975
 30
0.0
 10
62.528508
 20
27.042172
 30
0.0
  0
LWPOLYLINE
  5
198
100
AcDbEntity
  8
0
 62
7
100
AcDbPolyline
 90
5
 70
0
 10
39.595424
 20
41.877697
 30
0.0
 10
37.440440
 20
40.795402
 30
0.0
 10
35.037562
 20
42.001222
 30
0.0
 10
32.634684
 20
43.207042
 30
0.0
 10
31.661638
 20
42.710632
 30
0.0
  0
SPLINE
  5
199
100
AcDbEntity
  8
0
 62
7
100
AcDbSpline
 70
8
 71
3
 72
8
 73
4
 74
0
 40
0
 40
0
 40
0
 40
0
 40
1
 40
1
 40
1
 40
1
 10
100.762912
 20
27.144127
 30
0.0
 10
101.204512
 20
27.545655
 30
0.0
 10
101.528513
 20
27.910313
 30
0.0
 10
101.482912
 20
27.954472
 30
0.0
  0
SPLINE
  5
19a
100
AcDbEntity
  8
0
 62
7
100
AcDbSpline
 70
8
 71
3
 72
8
 73
4
 74
0
 40
0
 40
0
 40
0
 40
0
 40
1
 40
1
 40
1
 40
1
 10
101.482912
 20
27.954472
 30
0.0
 10
101.437313
 20
27.998647
 30
0.0
 10
95.111160
 20
31.165942
 30
0.0
 10
87.424793
 20
34.992930
 30
0.0
  0
SPLINE
  5
19b
100
AcDbEntity
  8
0
 62
7
100
AcDbSpline
 70
8
 71
3
 72
8
 73
4
 74
0
 40
0
 40
0
 40
0
 40
0
 40
1
 40
1
 40
1
 40
1
 10
87.424793
 20
34.992930
 30
0.0
 10
74.285314
 20
41.534977
 30
0.0
 10
73.481597
 20
41.971252
 30
0.0
 10
73.984796
 20
42.288465
 30
0.0
  0
SPLINE
  5
19c
100
AcDbEntity
  8
0
 62
7
100
AcDbSpline
 70
8
 71
3
 72
8
 73
4
 74
0
 40
0
 40
0
 40
0
 40
0
 40
1
 40
1
 40
1
 40
1
 10
73.984796
 20
42.288465
 30
0.0
 10
74.279158
 20
42.474030
 30
0.0
 10
75.895133
 20
43.315448
 30
0.0
 10
77.575853
 20
44.158275
 30
0.0
  0
LWPOLYLINE
  5
19d
100
AcDbEntity
  8
0
 62
7
100
AcDbPolyline
 90
1
 70
1
 10
62.528508
 20
27.042172
 30
0.0
  0
SPLINE
  5
19e
100
AcDbEntity
  8
0
 62
7
100
AcDbSpline
 70
8
 71
3
 72
8
 73
4
 74
0
 40
0
 40
0
 40
0
 40
0
 40
1
 40
1
 40
1
 40
1
 10
86.528513
 20
43.792260
 30
0.0
 10
87.771158
 20
44.421368
 30
0.0
 10
87.801375
 20
44.379458
 30
0.0
 10
85.140000
 20
45.718230
 30
0.0
  0
SPLINE
  5
19f
100
AcDbEntity
  8
0
 62
7
100
AcDbSpline
 70
8
 71
3
 72
8
 73
4
 74
0
 40
0
 40
0
 40
0
 40
0
 40
1
 40
1
 40
1
 40
1
 10
85.140000
 20
45.718230
 30
0.0
 10
84.117000
 20
46.232835
 30
0.0
 10
83.280000
 20
46.740082
 30
0.0
 10
83.280000
 20
46.845442
 30
0.0
  0
SPLINE
  5
1a0
100
AcDbEntity
  8
0
 62
7
100
AcDbSpline
 70
8
 71
3
 72
8
 73
4
 74
0
 40
0
 40
0
 40
0
 40
0
 40
1
 40
1
 40
1
 40
1
 10
83.280000
 20
46.845442
 30
0.0
 10
83.280000
 20
46.950802
 30
0.0
 10
84.263303
 20
47.518395
 30
0.0
 10
85.465110
 20
48.106763
 30
0.0
  0
LWPOLYLINE
  5
1a1
100
AcDbEntity
  8
0
 62
7
100
AcDbPolyline
 90
5
 70
0
 10
77.575853
 20
44.158275
 30
0.0
 10
80.631713
 20
45.690697
 30
0.0
 10
83.041935
 20
44.469022
 30
0.0
 10
85.452150
 20
43.247332
 30
0.0
 10
86.528513
 20
43.792260
 30
0.0
  0
SPLINE
  5
1a2
100
AcDbEntity
  8
0
 62
7
100
AcDbSpline
 70
8
 71
3
 72
8
 73
4
 74
0
 40
0
 40
0
 40
0
 40
0
 40
1
 40
1
 40
1
 40
1
 10
86.845110
 20
49.667362
 30
0.0
 10
86.402302
 20
49.937325
 30
0.0
 10
85.824000
 20
50.157570
 30
0.0
 10
85.560000
 20
50.156798
 30
0.0
  0
SPLINE
  5
1a3
100
AcDbEntity
  8
0
 62
7
100
AcDbSpline
 70
8
 71
3
 72
8
 73
4
 74
0
 40
0
 40
0
 40
0
 40
0
 40
1
 40
1
 40
1
 40
1
 10
85.560000
 20
50.156798
 30
0.0
 10
85.296000
 20
50.156077
 30
0.0
 10
78.168000
 20
46.713765
 30
0.0
 10
69.720000
 20
42.507323
 30
0.0
  0
LWPOLYLINE
  5
1a4
100
AcDbEntity
  8
0
 62
7
100
AcDbPolyline
 90
3
 70
0
 10
85.465110
 20
48.106763
 30
0.0
 10
87.650220
 20
49.176510
 30
0.0
 10
86.845110
 20
49.667362
 30
0.0
  0
SPLINE
  5
1a5
100
AcDbEntity
  8
0
 62
7
100
AcDbSpline
 70
8
 71
3
 72
8
 73
4
 74
0
 40
0
 40
0
 40
0
 40
0
 40
1
 40
1
 40
1
 40
1
 10
66.300000
 20
35.962852
 30
0.0
 10
65.079000
 20
36.570735
 30
0.0
 10
64.080000
 20
37.152247
 30
0.0
 10
64.080000
 20
37.255102
 30
0.0
  0
SPLINE
  5
1a6
100
AcDbEntity
  8
0
 62
7
100
AcDbSpline
 70
8
 71
3
 72
8
 73
4
 74
0
 40
0
 40
0
 40
0
 40
0
 40
1
 40
1
 40
1
 40
1
 10
64.080000
 20
37.255102
 30
0.0
 10
64.080000
 20
37.357957
 30
0.0
 10
65.651789
 20
38.224635
 30
0.0
 10
67.572864
 20
39.181058
 30
0.0
  0
LWPOLYLINE
  5
1a7
100
AcDbEntity
  8
0
 62
7
100
AcDbPolyline
 90
11
 70
0
 10
69.720000
 20
42.507323
 30
0.0
 10
54.360000
 20
34.859250
 30
0.0
 10
55.493404
 20
34.305008
 30
0.0
 10
56.626807
 20
33.750758
 30
0.0
 10
59.033405
 20
34.905000
 30
0.0
 10
61.440000
 20
36.059235
 30
0.0
 10
63.846595
 20
34.905000
 30
0.0
 10
66.253193
 20
33.750758
 30
0.0
 10
67.386596
 20
34.304190
 30
0.0
 10
68.520000
 20
34.857615
 30
0.0
 10
66.300000
 20
35.962852
 30
0.0
  0
SPLINE
  5
1a8
100
AcDbEntity
  8
0
 62
7
100
AcDbSpline
 70
8
 71
3
 72
8
 73
4
 74
0
 40
0
 40
0
 40
0
 40
0
 40
1
 40
1
 40
1
 40
1
 10
85.392863
 20
33.683565
 30
0.0
 10
93.272790
 20
29.703525
 30
0.0
 10
99.774000
 20
26.439690
 30
0.0
 10
99.840000
 20
26.430600
 30
0.0
  0
SPLINE
  5
1a9
100
AcDbEntity
  8
0
 62
7
100
AcDbSpline
 70
8
 71
3
 72
8
 73
4
 74
0
 40
0
 40
0
 40
0
 40
0
 40
1
 40
1
 40
1
 40
1
 10
99.840000
 20
26.430600
 30
0.0
 10
99.906000
 20
26.421525
 30
0.0
 10
100.321313
 20
26.742592
 30
0.0
 10
100.762912
 20
27.144127
 30
0.0
  0
LWPOLYLINE
  5
1aa
100
AcDbEntity
  8
0
 62
7
100
AcDbPolyline
 90
3
 70
0
 10
67.572864
 20
39.181058
 30
0.0
 10
71.065730
 20
40.920000
 30
0.0
 10
85.392863
 20
33.683565
 30
0.0
  0
SPLINE
  5
1ab
100
AcDbEntity
  8
0
 62
7
100
AcDbSpline
 70
8
 71
3
 72
8
 73
4
 74
0
 40
0
 40
0
 40
0
 40
0
 40
1
 40
1
 40
1
 40
1
 10
29.856190
 20
30.038527
 30
0.0
 10
29.621836
 20
30.417712
 30
0.0
 10
27.828190
 20
31.221030
 30
0.0
 10
27.570912
 20
31.062022
 30
0.0
  0
SPLINE
  5
1ac
100
AcDbEntity
  8
0
 62
7
100
AcDbSpline
 70
8
 71
3
 72
8
 73
4
 74
0
 40
0
 40
0
 40
0
 40
0
 40
1
 40
1
 40
1
 40
1
 10
27.570912
 20
31.062022
 30
0.0
 10
27.418968
 20
30.968115
 30
0.0
 10
27.625189
 20
30.589245
 30
0.0
 10
28.088340
 20
30.111390
 30
0.0
  0
SPLINE
  5
1ad
100
AcDbEntity
  8
0
 62
7
100
AcDbSpline
 70
8
 71
3
 72
8
 73
4
 74
0
 40
0
 40
0
 40
0
 40
0
 40
1
 40
1
 40
1
 40
1
 10
28.088340
 20
30.111390
 30
0.0
 10
28.757731
 20
29.420760
 30
0.0
 10
28.932031
 20
29.350448
 30
0.0
 10
29.421672
 20
29.573543
 30
0.0
  0
SPLINE
  5
1ae
100
AcDbEntity
  8
0
 62
7
100
AcDbSpline
 70
8
 71
3
 72
8
 73
4
 74
0
 40
0
 40
0
 40
0
 40
0
 40
1
 40
1
 40
1
 40
1
 10
29.421672
 20
29.573543
 30
0.0
 10
29.731474
 20
29.714700
 30
0.0
 10
29.927008
 20
29.923942
 30
0.0
 10
29.856190
 20
30.038527
 30
0.0
  0
LWPOLYLINE
  5
1af
100
AcDbEntity
  8
0
 62
7
100
AcDbPolyline
 90
1
 70
1
 10
100.762912
 20
27.144127
 30
0.0
  0
LWPOLYLINE
  5
1b0
100
AcDbEntity
  8
0
 62
7
100
AcDbPolyline
 90
1
 70
1
 10
29.856190
 20
30.038527
 30
0.0
  0
SPLINE
  5
1b1
100
AcDbEntity
  8
0
 62
7
100
AcDbSpline
 70
8
 71
3
 72
8
 73
4
 74
0
 40
0
 40
0
 40
0
 40
0
 40
1
 40
1
 40
1
 40
1
 10
101.276707
 20
32.881635
 30
0.0
 10
99.298515
 20
33.863707
 30
0.0
 10
97.680000
 20
34.725397
 30
0.0
 10
97.680000
 20
34.796512
 30
0.0
  0
SPLINE
  5
1b2
100
AcDbEntity
  8
0
 62
7
100
AcDbSpline
 70
8
 71
3
 72
8
 73
4
 74
0
 40
0
 40
0
 40
0
 40
0
 40
1
 40
1
 40
1
 40
1
 10
97.680000
 20
34.796512
 30
0.0
 10
97.680000
 20
34.867612
 30
0.0
 10
101.230057
 20
36.698235
 30
0.0
 10
105.569010
 20
38.864527
 30
0.0
  0
LWPOLYLINE
  5
1b3
100
AcDbEntity
  8
0
 62
7
100
AcDbPolyline
 90
3
 70
0
 10
104.109630
 20
30.308025
 30
0.0
 10
104.873415
 20
31.096050
 30
0.0
 10
101.276707
 20
32.881635
 30
0.0
  0
SPLINE
  5
1b4
100
AcDbEntity
  8
0
 62
7
100
AcDbSpline
 70
8
 71
3
 72
8
 73
4
 74
0
 40
0
 40
0
 40
0
 40
0
 40
1
 40
1
 40
1
 40
1
 10
114.206775
 20
44.321617
 30
0.0
 10
114.618585
 20
45.156727
 30
0.0
 10
114.902010
 20
45.840000
 30
0.0
 10
114.836617
 20
45.840000
 30
0.0
  0
SPLINE
  5
1b5
100
AcDbEntity
  8
0
 62
7
100
AcDbSpline
 70
8
 71
3
 72
8
 73
4
 74
0
 40
0
 40
0
 40
0
 40
0
 40
1
 40
1
 40
1
 40
1
 10
114.836617
 20
45.840000
 30
0.0
 10
114.771217
 20
45.840000
 30
0.0
 10
110.290957
 20
43.626113
 30
0.0
 10
104.880487
 20
40.920240
 30
0.0
  0
LWPOLYLINE
  5
1b6
100
AcDbEntity
  8
0
 62
7
100
AcDbPolyline
 90
3
 70
0
 10
105.569010
 20
38.864527
 30
0.0
 10
113.458027
 20
42.803242
 30
0.0
 10
114.206775
 20
44.321617
 30
0.0
  0
SPLINE
  5
1b7
100
AcDbEntity
  8
0
 62
7
100
AcDbSpline
 70
8
 71
3
 72
8
 73
4
 74
0
 40
0
 40
0
 40
0
 40
0
 40
1
 40
1
 40
1
 40
1
 10
91.561627
 20
37.736407
 30
0.0
 10
89.646735
 20
38.691165
 30
0.0
 10
88.080000
 20
39.553973
 30
0.0
 10
88.080000
 20
39.653752
 30
0.0
  0
SPLINE
  5
1b8
100
AcDbEntity
  8
0
 62
7
100
AcDbSpline
 70
8
 71
3
 72
8
 73
4
 74
0
 40
0
 40
0
 40
0
 40
0
 40
1
 40
1
 40
1
 40
1
 10
88.080000
 20
39.653752
 30
0.0
 10
88.080000
 20
39.753540
 30
0.0
 10
89.075745
 20
40.335277
 30
0.0
 10
90.292770
 20
40.946505
 30
0.0
  0
LWPOLYLINE
  5
1b9
100
AcDbEntity
  8
0
 62
7
100
AcDbPolyline
 90
3
 70
0
 10
104.880487
 20
40.920240
 30
0.0
 10
95.043262
 20
36.000487
 30
0.0
 10
91.561627
 20
37.736407
 30
0.0
  0
SPLINE
  5
1ba
100
AcDbEntity
  8
0
 62
7
100
AcDbSpline
 70
8
 71
3
 72
8
 73
4
 74
0
 40
0
 40
0
 40
0
 40
0
 40
1
 40
1
 40
1
 40
1
 10
83.247510
 20
41.844788
 30
0.0
 10
82.054725
 20
42.458153
 30
0.0
 10
80.866717
 20
42.960000
 30
0.0
 10
80.607487
 20
42.960000
 30
0.0
  0
SPLINE
  5
1bb
100
AcDbEntity
  8
0
 62
7
100
AcDbSpline
 70
8
 71
3
 72
8
 73
4
 74
0
 40
0
 40
0
 40
0
 40
0
 40
1
 40
1
 40
1
 40
1
 10
80.607487
 20
42.960000
 30
0.0
 10
79.981387
 20
42.960000
 30
0.0
 10
78.669472
 20
42.270210
 30
0.0
 10
78.764692
 20
41.991075
 30
0.0
  0
SPLINE
  5
1bc
100
AcDbEntity
  8
0
 62
7
100
AcDbSpline
 70
8
 71
3
 72
8
 73
4
 74
0
 40
0
 40
0
 40
0
 40
0
 40
1
 40
1
 40
1
 40
1
 10
78.764692
 20
41.991075
 30
0.0
 10
78.826192
 20
41.810857
 30
0.0
 10
102.772905
 20
29.617815
 30
0.0
 10
103.212922
 20
29.542695
 30
0.0
  0
SPLINE
  5
1bd
100
AcDbEntity
  8
0
 62
7
100
AcDbSpline
 70
8
 71
3
 72
8
 73
4
 74
0
 40
0
 40
0
 40
0
 40
0
 40
1
 40
1
 40
1
 40
1
 10
103.212922
 20
29.542695
 30
0.0
 10
103.286047
 20
29.530245
 30
0.0
 10
103.689547
 20
29.874615
 30
0.0
 10
104.109630
 20
30.308025
 30
0.0
  0
LWPOLYLINE
  5
1be
100
AcDbEntity
  8
0
 62
7
100
AcDbPolyline
 90
7
 70
0
 10
90.292770
 20
40.946505
 30
0.0
 10
92.505540
 20
42.057817
 30
0.0
 10
91.371750
 20
42.634028
 30
0.0
 10
90.237967
 20
43.210230
 30
0.0
 10
87.827085
 20
41.969910
 30
0.0
 10
85.416210
 20
40.729583
 30
0.0
 10
83.247510
 20
41.844788
 30
0.0
  0
SPLINE
  5
1bf
100
AcDbEntity
  8
0
 62
7
100
AcDbSpline
 70
8
 71
3
 72
8
 73
4
 74
0
 40
0
 40
0
 40
0
 40
0
 40
1
 40
1
 40
1
 40
1
 10
106.788578
 20
34.674262
 30
0.0
 10
108.691230
 20
35.629830
 30
0.0
 10
109.044570
 20
35.914890
 30
0.0
 10
109.986630
 20
37.254262
 30
0.0
  0
SPLINE
  5
1c0
100
AcDbEntity
  8
0
 62
7
100
AcDbSpline
 70
8
 71
3
 72
8
 73
4
 74
0
 40
0
 40
0
 40
0
 40
0
 40
1
 40
1
 40
1
 40
1
 10
109.986630
 20
37.254262
 30
0.0
 10
110.569125
 20
38.082420
 30
0.0
 10
111.124140
 20
38.897175
 30
0.0
 10
111.220005
 20
39.064830
 30
0.0
  0
SPLINE
  5
1c1
100
AcDbEntity
  8
0
 62
7
100
AcDbSpline
 70
8
 71
3
 72
8
 73
4
 74
0
 40
0
 40
0
 40
0
 40
0
 40
1
 40
1
 40
1
 40
1
 10
111.220005
 20
39.064830
 30
0.0
 10
111.385192
 20
39.353737
 30
0.0
 10
103.435582
 20
35.498917
 30
0.0
 10
102.760792
 20
34.962908
 30
0.0
  0
SPLINE
  5
1c2
100
AcDbEntity
  8
0
 62
7
100
AcDbSpline
 70
8
 71
3
 72
8
 73
4
 74
0
 40
0
 40
0
 40
0
 40
0
 40
1
 40
1
 40
1
 40
1
 10
102.760792
 20
34.962908
 30
0.0
 10
102.512490
 20
34.765672
 30
0.0
 10
102.672412
 20
34.588560
 30
0.0
 10
103.480793
 20
34.165523
 30
0.0
  0
SPLINE
  5
1c3
100
AcDbEntity
  8
0
 62
7
100
AcDbSpline
 70
8
 71
3
 72
8
 73
4
 74
0
 40
0
 40
0
 40
0
 40
0
 40
1
 40
1
 40
1
 40
1
 10
103.480793
 20
34.165523
 30
0.0
 10
104.052360
 20
33.866415
 30
0.0
 10
104.549160
 20
33.616808
 30
0.0
 10
104.584793
 20
33.610845
 30
0.0
  0
SPLINE
  5
1c4
100
AcDbEntity
  8
0
 62
7
100
AcDbSpline
 70
8
 71
3
 72
8
 73
4
 74
0
 40
0
 40
0
 40
0
 40
0
 40
1
 40
1
 40
1
 40
1
 10
104.584793
 20
33.610845
 30
0.0
 10
104.620418
 20
33.604845
 30
0.0
 10
105.612135
 20
34.083420
 30
0.0
 10
106.788578
 20
34.674263
 30
0.0
  0
LWPOLYLINE
  5
1c5
100
AcDbEntity
  8
0
 62
7
100
AcDbPolyline
 90
1
 70
1
 10
104.109630
 20
30.308025
 30
0.0
  0
SPLINE
  5
1c6
100
AcDbEntity
  8
0
 62
7
100
AcDbSpline
 70
8
 71
3
 72
8
 73
4
 74
0
 40
0
 40
0
 40
0
 40
0
 40
1
 40
1
 40
1
 40
1
 10
62.531422
 20
46.223542
 30
0.0
 10
70.841141
 20
50.394495
 30
0.0
 10
77.686117
 20
53.851605
 30
0.0
 10
77.742480
 20
53.906025
 30
0.0
  0
SPLINE
  5
1c7
100
AcDbEntity
  8
0
 62
7
100
AcDbSpline
 70
8
 71
3
 72
8
 73
4
 74
0
 40
0
 40
0
 40
0
 40
0
 40
1
 40
1
 40
1
 40
1
 10
77.742480
 20
53.906025
 30
0.0
 10
77.919053
 20
54.076492
 30
0.0
 10
76.950555
 20
54.690330
 30
0.0
 10
76.254968
 20
54.848820
 30
0.0
  0
SPLINE
  5
1c8
100
AcDbEntity
  8
0
 62
7
100
AcDbSpline
 70
8
 71
3
 72
8
 73
4
 74
0
 40
0
 40
0
 40
0
 40
0
 40
1
 40
1
 40
1
 40
1
 10
76.254968
 20
54.848820
 30
0.0
 10
75.748800
 20
54.964155
 30
0.0
 10
75.047115
 20
54.730950
 30
0.0
 10
73.317556
 20
53.872597
 30
0.0
  0
LWPOLYLINE
  5
1c9
100
AcDbEntity
  8
0
 62
7
100
AcDbPolyline
 90
1
 70
1
 10
106.788578
 20
34.674263
 30
0.0
  0
SPLINE
  5
1ca
100
AcDbEntity
  8
0
 62
7
100
AcDbSpline
 70
8
 71
3
 72
8
 73
4
 74
0
 40
0
 40
0
 40
0
 40
0
 40
1
 40
1
 40
1
 40
1
 10
68.753563
 20
53.852422
 30
0.0
 10
67.493179
 20
54.461587
 30
0.0
 10
66.361678
 20
54.960000
 30
0.0
 10
66.239120
 20
54.960000
 30
0.0
  0
SPLINE
  5
1cb
100
AcDbEntity
  8
0
 62
7
100
AcDbSpline
 70
8
 71
3
 72
8
 73
4
 74
0
 40
0
 40
0
 40
0
 40
0
 40
1
 40
1
 40
1
 40
1
 10
66.239120
 20
54.960000
 30
0.0
 10
65.908051
 20
54.960000
 30
0.0
 10
64.320000
 20
54.173550
 30
0.0
 10
64.320000
 20
54.009592
 30
0.0
  0
SPLINE
  5
1cc
100
AcDbEntity
  8
0
 62
7
100
AcDbSpline
 70
8
 71
3
 72
8
 73
4
 74
0
 40
0
 40
0
 40
0
 40
0
 40
1
 40
1
 40
1
 40
1
 10
64.320000
 20
54.009592
 30
0.0
 10
64.320000
 20
53.931765
 30
0.0
 10
65.319000
 20
53.371980
 30
0.0
 10
66.540000
 20
52.765627
 30
0.0
  0
LWPOLYLINE
  5
1cd
100
AcDbEntity
  8
0
 62
7
100
AcDbPolyline
 90
3
 70
0
 10
73.317556
 20
53.872597
 30
0.0
 10
71.045174
 20
52.744845
 30
0.0
 10
68.753563
 20
53.852422
 30
0.0
  0
SPLINE
  5
1ce
100
AcDbEntity
  8
0
 62
7
100
AcDbSpline
 70
8
 71
3
 72
8
 73
4
 74
0
 40
0
 40
0
 40
0
 40
0
 40
1
 40
1
 40
1
 40
1
 10
43.542492
 20
56.927370
 30
0.0
 10
33.718120
 20
61.848715
 30
0.0
 10
25.680000
 20
65.957856
 30
0.0
 10
25.680000
 20
66.058790
 30
0.0
  0
SPLINE
  5
1cf
100
AcDbEntity
  8
0
 62
7
100
AcDbSpline
 70
8
 71
3
 72
8
 73
4
 74
0
 40
0
 40
0
 40
0
 40
0
 40
1
 40
1
 40
1
 40
1
 10
25.680000
 20
66.058790
 30
0.0
 10
25.680000
 20
66.159722
 30
0.0
 10
27.247190
 20
67.019892
 30
0.0
 10
29.162645
 20
67.970278
 30
0.0
  0
LWPOLYLINE
  5
1d0
100
AcDbEntity
  8
0
 62
7
100
AcDbPolyline
 90
5
 70
0
 10
66.540000
 20
52.765627
 30
0.0
 10
68.760000
 20
51.663165
 30
0.0
 10
65.082492
 20
49.821308
 30
0.0
 10
61.404982
 20
47.979457
 30
0.0
 10
43.542492
 20
56.927370
 30
0.0
  0
SPLINE
  5
1d1
100
AcDbEntity
  8
0
 62
7
100
AcDbSpline
 70
8
 71
3
 72
8
 73
4
 74
0
 40
0
 40
0
 40
0
 40
0
 40
1
 40
1
 40
1
 40
1
 10
37.500000
 20
69.562855
 30
0.0
 10
36.279000
 20
70.170734
 30
0.0
 10
35.280000
 20
70.750687
 30
0.0
 10
35.280000
 20
70.851636
 30
0.0
  0
SPLINE
  5
1d2
100
AcDbEntity
  8
0
 62
7
100
AcDbSpline
 70
8
 71
3
 72
8
 73
4
 74
0
 40
0
 40
0
 40
0
 40
0
 40
1
 40
1
 40
1
 40
1
 10
35.280000
 20
70.851636
 30
0.0
 10
35.280000
 20
70.952587
 30
0.0
 10
36.275746
 20
71.535276
 30
0.0
 10
37.492768
 20
72.146503
 30
0.0
  0
LWPOLYLINE
  5
1d3
100
AcDbEntity
  8
0
 62
7
100
AcDbPolyline
 90
7
 70
0
 10
29.162645
 20
67.970278
 30
0.0
 10
32.645290
 20
69.698251
 30
0.0
 10
35.039984
 20
68.520008
 30
0.0
 10
37.434674
 20
67.341766
 30
0.0
 10
38.577338
 20
67.899692
 30
0.0
 10
39.720000
 20
68.457617
 30
0.0
 10
37.500000
 20
69.562855
 30
0.0
  0
SPLINE
  5
1d4
100
AcDbEntity
  8
0
 62
7
100
AcDbSpline
 70
8
 71
3
 72
8
 73
4
 74
0
 40
0
 40
0
 40
0
 40
0
 40
1
 40
1
 40
1
 40
1
 10
12.572810
 20
61.155950
 30
0.0
 10
12.653765
 20
60.751178
 30
0.0
 10
12.720000
 20
60.281611
 30
0.0
 10
12.720000
 20
60.112468
 30
0.0
  0
SPLINE
  5
1d5
100
AcDbEntity
  8
0
 62
7
100
AcDbSpline
 70
8
 71
3
 72
8
 73
4
 74
0
 40
0
 40
0
 40
0
 40
0
 40
1
 40
1
 40
1
 40
1
 10
12.720000
 20
60.112468
 30
0.0
 10
12.720000
 20
59.933224
 30
0.0
 10
12.902228
 20
59.852592
 30
0.0
 10
13.156841
 20
59.919172
 30
0.0
  0
SPLINE
  5
1d6
100
AcDbEntity
  8
0
 62
7
100
AcDbSpline
 70
8
 71
3
 72
8
 73
4
 74
0
 40
0
 40
0
 40
0
 40
0
 40
1
 40
1
 40
1
 40
1
 10
13.156841
 20
59.919172
 30
0.0
 10
13.397104
 20
59.982007
 30
0.0
 10
14.577982
 20
59.539894
 30
0.0
 10
15.781016
 20
58.936704
 30
0.0
  0
SPLINE
  5
1d7
100
AcDbEntity
  8
0
 62
7
100
AcDbSpline
 70
8
 71
3
 72
8
 73
4
 74
0
 40
0
 40
0
 40
0
 40
0
 40
1
 40
1
 40
1
 40
1
 10
15.781016
 20
58.936704
 30
0.0
 10
16.984049
 20
58.333517
 30
0.0
 10
18.087773
 20
57.840000
 30
0.0
 10
18.233735
 20
57.840000
 30
0.0
  0
SPLINE
  5
1d8
100
AcDbEntity
  8
0
 62
7
100
AcDbSpline
 70
8
 71
3
 72
8
 73
4
 74
0
 40
0
 40
0
 40
0
 40
0
 40
1
 40
1
 40
1
 40
1
 10
18.233735
 20
57.840000
 30
0.0
 10
18.379698
 20
57.840000
 30
0.0
 10
18.952087
 20
58.071086
 30
0.0
 10
19.505710
 20
58.353523
 30
0.0
  0
LWPOLYLINE
  5
1d9
100
AcDbEntity
  8
0
 62
7
100
AcDbPolyline
 90
7
 70
0
 10
37.492768
 20
72.146503
 30
0.0
 10
39.705538
 20
73.257820
 30
0.0
 10
38.576882
 20
73.831420
 30
0.0
 10
37.448228
 20
74.405018
 30
0.0
 10
24.936924
 20
68.148460
 30
0.0
 10
12.425620
 20
61.891900
 30
0.0
 10
12.572810
 20
61.155950
 30
0.0
  0
SPLINE
  5
1da
100
AcDbEntity
  8
0
 62
7
100
AcDbSpline
 70
8
 71
3
 72
8
 73
4
 74
0
 40
0
 40
0
 40
0
 40
0
 40
1
 40
1
 40
1
 40
1
 10
18.296149
 20
59.967568
 30
0.0
 10
17.077267
 20
60.572856
 30
0.0
 10
16.080000
 20
61.148648
 30
0.0
 10
16.080000
 20
61.247107
 30
0.0
  0
SPLINE
  5
1db
100
AcDbEntity
  8
0
 62
7
100
AcDbSpline
 70
8
 71
3
 72
8
 73
4
 74
0
 40
0
 40
0
 40
0
 40
0
 40
1
 40
1
 40
1
 40
1
 10
16.080000
 20
61.247107
 30
0.0
 10
16.080000
 20
61.345564
 30
0.0
 10
17.644191
 20
62.205856
 30
0.0
 10
19.555979
 20
63.158863
 30
0.0
  0
LWPOLYLINE
  5
1dc
100
AcDbEntity
  8
0
 62
7
100
AcDbPolyline
 90
3
 70
0
 10
19.505710
 20
58.353523
 30
0.0
 10
20.512298
 20
58.867046
 30
0.0
 10
18.296149
 20
59.967568
 30
0.0
  0
SPLINE
  5
1dd
100
AcDbEntity
  8
0
 62
7
100
AcDbSpline
 70
8
 71
3
 72
8
 73
4
 74
0
 40
0
 40
0
 40
0
 40
0
 40
1
 40
1
 40
1
 40
1
 10
46.089077
 20
43.782667
 30
0.0
 10
46.810085
 20
43.410300
 30
0.0
 10
47.805000
 20
42.899580
 30
0.0
 10
48.300000
 20
42.647737
 30
0.0
  0
SPLINE
  5
1de
100
AcDbEntity
  8
0
 62
7
100
AcDbSpline
 70
8
 71
3
 72
8
 73
4
 74
0
 40
0
 40
0
 40
0
 40
0
 40
1
 40
1
 40
1
 40
1
 10
48.300000
 20
42.647737
 30
0.0
 10
48.795000
 20
42.395895
 30
0.0
 10
49.200000
 20
42.117450
 30
0.0
 10
49.200000
 20
42.028965
 30
0.0
  0
SPLINE
  5
1df
100
AcDbEntity
  8
0
 62
7
100
AcDbSpline
 70
8
 71
3
 72
8
 73
4
 74
0
 40
0
 40
0
 40
0
 40
0
 40
1
 40
1
 40
1
 40
1
 10
49.200000
 20
42.028965
 30
0.0
 10
49.200000
 20
41.940487
 30
0.0
 10
48.203186
 20
41.373082
 30
0.0
 10
46.984858
 20
40.768065
 30
0.0
  0
LWPOLYLINE
  5
1e0
100
AcDbEntity
  8
0
 62
7
100
AcDbPolyline
 90
11
 70
0
 10
19.555979
 20
63.158863
 30
0.0
 10
23.031959
 20
64.891606
 30
0.0
 10
41.092572
 20
55.875645
 30
0.0
 10
59.153186
 20
46.859692
 30
0.0
 10
55.495908
 20
45.027997
 30
0.0
 10
51.838632
 20
43.196310
 30
0.0
 10
49.436928
 20
44.401537
 30
0.0
 10
47.035224
 20
45.606772
 30
0.0
 10
45.906689
 20
45.033232
 30
0.0
 10
44.778152
 20
44.459692
 30
0.0
 10
46.089077
 20
43.782667
 30
0.0
  0
SPLINE
  5
1e1
100
AcDbEntity
  8
0
 62
7
100
AcDbSpline
 70
8
 71
3
 72
8
 73
4
 74
0
 40
0
 40
0
 40
0
 40
0
 40
1
 40
1
 40
1
 40
1
 10
45.724858
 20
39.164632
 30
0.0
 10
46.250186
 20
38.887755
 30
0.0
 10
46.847141
 20
38.656440
 30
0.0
 10
47.051422
 20
38.650605
 30
0.0
  0
SPLINE
  5
1e2
100
AcDbEntity
  8
0
 62
7
100
AcDbSpline
 70
8
 71
3
 72
8
 73
4
 74
0
 40
0
 40
0
 40
0
 40
0
 40
1
 40
1
 40
1
 40
1
 10
47.051422
 20
38.650605
 30
0.0
 10
47.255705
 20
38.644605
 30
0.0
 10
54.221705
 20
42.052590
 30
0.0
 10
62.531422
 20
46.223542
 30
0.0
  0
LWPOLYLINE
  5
1e3
100
AcDbEntity
  8
0
 62
7
100
AcDbPolyline
 90
3
 70
0
 10
46.984858
 20
40.768065
 30
0.0
 10
44.769718
 20
39.668048
 30
0.0
 10
45.724858
 20
39.164632
 30
0.0
  0
LWPOLYLINE
  5
1e4
100
AcDbEntity
  8
0
 62
7
100
AcDbPolyline
 90
1
 70
1
 10
62.531422
 20
46.223542
 30
0.0
  0
SPLINE
  5
1e5
100
AcDbEntity
  8
0
 62
7
100
AcDbSpline
 70
8
 71
3
 72
8
 73
4
 74
0
 40
0
 40
0
 40
0
 40
0
 40
1
 40
1
 40
1
 40
1
 10
117.105810
 20
51.222698
 30
0.0
 10
117.506648
 20
52.401180
 30
0.0
 10
117.808823
 20
53.387520
 30
0.0
 10
117.777300
 20
53.414565
 30
0.0
  0
SPLINE
  5
1e6
100
AcDbEntity
  8
0
 62
7
100
AcDbSpline
 70
8
 71
3
 72
8
 73
4
 74
0
 40
0
 40
0
 40
0
 40
0
 40
1
 40
1
 40
1
 40
1
 10
117.777300
 20
53.414565
 30
0.0
 10
117.745800
 20
53.441640
 30
0.0
 10
116.959155
 20
53.844593
 30
0.0
 10
116.029238
 20
54.310087
 30
0.0
  0
LWPOLYLINE
  5
1e7
100
AcDbEntity
  8
0
 62
7
100
AcDbPolyline
 90
3
 70
0
 10
105.958673
 20
43.920000
 30
0.0
 10
116.377005
 20
49.080000
 30
0.0
 10
117.105810
 20
51.222698
 30
0.0
  0
SPLINE
  5
1e8
100
AcDbEntity
  8
0
 62
7
100
AcDbSpline
 70
8
 71
3
 72
8
 73
4
 74
0
 40
0
 40
0
 40
0
 40
0
 40
1
 40
1
 40
1
 40
1
 10
113.209238
 20
54.667627
 30
0.0
 10
112.588155
 20
54.398775
 30
0.0
 10
112.082355
 20
54.111577
 30
0.0
 10
112.085228
 20
54.029400
 30
0.0
  0
SPLINE
  5
1e9
100
AcDbEntity
  8
0
 62
7
100
AcDbSpline
 70
8
 71
3
 72
8
 73
4
 74
0
 40
0
 40
0
 40
0
 40
0
 40
1
 40
1
 40
1
 40
1
 10
112.085228
 20
54.029400
 30
0.0
 10
112.088227
 20
53.947230
 30
0.0
 10
113.060107
 20
53.416545
 30
0.0
 10
114.245227
 20
52.850100
 30
0.0
  0
SPLINE
  5
1ea
100
AcDbEntity
  8
0
 62
7
100
AcDbSpline
 70
8
 71
3
 72
8
 73
4
 74
0
 40
0
 40
0
 40
0
 40
0
 40
1
 40
1
 40
1
 40
1
 10
114.245227
 20
52.850100
 30
0.0
 10
115.430355
 20
52.283655
 30
0.0
 10
116.400000
 20
51.741930
 30
0.0
 10
116.400000
 20
51.646267
 30
0.0
  0
SPLINE
  5
1eb
100
AcDbEntity
  8
0
 62
7
100
AcDbSpline
 70
8
 71
3
 72
8
 73
4
 74
0
 40
0
 40
0
 40
0
 40
0
 40
1
 40
1
 40
1
 40
1
 10
116.400000
 20
51.646267
 30
0.0
 10
116.400000
 20
51.550597
 30
0.0
 10
114.830910
 20
50.689988
 30
0.0
 10
112.913130
 20
49.733790
 30
0.0
  0
LWPOLYLINE
  5
1ec
100
AcDbEntity
  8
0
 62
7
100
AcDbPolyline
 90
3
 70
0
 10
116.029238
 20
54.310087
 30
0.0
 10
114.338482
 20
55.156440
 30
0.0
 10
113.209238
 20
54.667627
 30
0.0
  0
SPLINE
  5
1ed
100
AcDbEntity
  8
0
 62
7
100
AcDbSpline
 70
8
 71
3
 72
8
 73
4
 74
0
 40
0
 40
0
 40
0
 40
0
 40
1
 40
1
 40
1
 40
1
 10
91.553130
 20
56.931645
 30
0.0
 10
81.722910
 20
61.846660
 30
0.0
 10
73.680000
 20
65.952202
 30
0.0
 10
73.680000
 20
66.055072
 30
0.0
  0
SPLINE
  5
1ee
100
AcDbEntity
  8
0
 62
7
100
AcDbSpline
 70
8
 71
3
 72
8
 73
4
 74
0
 40
0
 40
0
 40
0
 40
0
 40
1
 40
1
 40
1
 40
1
 10
73.680000
 20
66.055072
 30
0.0
 10
73.680000
 20
66.157944
 30
0.0
 10
75.243390
 20
67.021610
 30
0.0
 10
77.154210
 20
67.974332
 30
0.0
  0
LWPOLYLINE
  5
1ef
100
AcDbEntity
  8
0
 62
7
100
AcDbPolyline
 90
3
 70
0
 10
112.913130
 20
49.733790
 30
0.0
 10
109.426260
 20
47.995260
 30
0.0
 10
91.553130
 20
56.931645
 30
0.0
  0
SPLINE
  5
1f0
100
AcDbEntity
  8
0
 62
7
100
AcDbSpline
 70
8
 71
3
 72
8
 73
4
 74
0
 40
0
 40
0
 40
0
 40
0
 40
1
 40
1
 40
1
 40
1
 10
85.500000
 20
69.562855
 30
0.0
 10
84.279000
 20
70.170734
 30
0.0
 10
83.280000
 20
70.750687
 30
0.0
 10
83.280000
 20
70.851636
 30
0.0
  0
SPLINE
  5
1f1
100
AcDbEntity
  8
0
 62
7
100
AcDbSpline
 70
8
 71
3
 72
8
 73
4
 74
0
 40
0
 40
0
 40
0
 40
0
 40
1
 40
1
 40
1
 40
1
 10
83.280000
 20
70.851636
 30
0.0
 10
83.280000
 20
70.952587
 30
0.0
 10
84.275745
 20
71.535276
 30
0.0
 10
85.492770
 20
72.146503
 30
0.0
  0
LWPOLYLINE
  5
1f2
100
AcDbEntity
  8
0
 62
7
100
AcDbPolyline
 90
7
 70
0
 10
77.154210
 20
67.974332
 30
0.0
 10
80.628420
 20
69.706553
 30
0.0
 10
83.031547
 20
68.524159
 30
0.0
 10
85.434675
 20
67.341766
 30
0.0
 10
86.577337
 20
67.899691
 30
0.0
 10
87.720000
 20
68.457616
 30
0.0
 10
85.500000
 20
69.562855
 30
0.0
  0
SPLINE
  5
1f3
100
AcDbEntity
  8
0
 62
7
100
AcDbSpline
 70
8
 71
3
 72
8
 73
4
 74
0
 40
0
 40
0
 40
0
 40
0
 40
1
 40
1
 40
1
 40
1
 10
70.085268
 20
66.713306
 30
0.0
 10
61.634372
 20
62.483510
 30
0.0
 10
54.720000
 20
58.935048
 30
0.0
 10
54.720000
 20
58.827835
 30
0.0
  0
SPLINE
  5
1f4
100
AcDbEntity
  8
0
 62
7
100
AcDbSpline
 70
8
 71
3
 72
8
 73
4
 74
0
 40
0
 40
0
 40
0
 40
0
 40
1
 40
1
 40
1
 40
1
 10
54.720000
 20
58.827835
 30
0.0
 10
54.720000
 20
58.720620
 30
0.0
 10
55.158670
 20
58.435087
 30
0.0
 10
55.694822
 20
58.193316
 30
0.0
  0
LWPOLYLINE
  5
1f5
100
AcDbEntity
  8
0
 62
7
100
AcDbPolyline
 90
5
 70
0
 10
85.492770
 20
72.146503
 30
0.0
 10
87.705540
 20
73.257820
 30
0.0
 10
86.578035
 20
73.830832
 30
0.0
 10
85.450538
 20
74.403844
 30
0.0
 10
70.085268
 20
66.713306
 30
0.0
  0
SPLINE
  5
1f6
100
AcDbEntity
  8
0
 62
7
100
AcDbSpline
 70
8
 71
3
 72
8
 73
4
 74
0
 40
0
 40
0
 40
0
 40
0
 40
1
 40
1
 40
1
 40
1
 10
66.300000
 20
59.962856
 30
0.0
 10
65.079000
 20
60.570734
 30
0.0
 10
64.080000
 20
61.152244
 30
0.0
 10
64.080000
 20
61.255102
 30
0.0
  0
SPLINE
  5
1f7
100
AcDbEntity
  8
0
 62
7
100
AcDbSpline
 70
8
 71
3
 72
8
 73
4
 74
0
 40
0
 40
0
 40
0
 40
0
 40
1
 40
1
 40
1
 40
1
 10
64.080000
 20
61.255102
 30
0.0
 10
64.080000
 20
61.357956
 30
0.0
 10
65.650714
 20
62.224637
 30
0.0
 10
67.570474
 20
63.181056
 30
0.0
  0
LWPOLYLINE
  5
1f8
100
AcDbEntity
  8
0
 62
7
100
AcDbPolyline
 90
9
 70
0
 10
55.694822
 20
58.193316
 30
0.0
 10
56.669644
 20
57.753732
 30
0.0
 10
59.054822
 20
58.927294
 30
0.0
 10
61.440000
 20
60.100856
 30
0.0
 10
63.837338
 20
58.921310
 30
0.0
 10
66.234674
 20
57.741766
 30
0.0
 10
67.377338
 20
58.299691
 30
0.0
 10
68.520000
 20
58.857617
 30
0.0
 10
66.300000
 20
59.962856
 30
0.0
  0
SPLINE
  5
1f9
100
AcDbEntity
  8
0
 62
7
100
AcDbSpline
 70
8
 71
3
 72
8
 73
4
 74
0
 40
0
 40
0
 40
0
 40
0
 40
1
 40
1
 40
1
 40
1
 10
88.930470
 20
55.945553
 30
0.0
 10
98.758710
 20
51.009608
 30
0.0
 10
106.800000
 20
46.899375
 30
0.0
 10
106.800000
 20
46.811700
 30
0.0
  0
SPLINE
  5
1fa
100
AcDbEntity
  8
0
 62
7
100
AcDbSpline
 70
8
 71
3
 72
8
 73
4
 74
0
 40
0
 40
0
 40
0
 40
0
 40
1
 40
1
 40
1
 40
1
 10
106.800000
 20
46.811700
 30
0.0
 10
106.800000
 20
46.724032
 30
0.0
 10
105.229185
 20
45.867090
 30
0.0
 10
103.309305
 20
44.907382
 30
0.0
  0
LWPOLYLINE
  5
1fb
100
AcDbEntity
  8
0
 62
7
100
AcDbPolyline
 90
3
 70
0
 10
67.570474
 20
63.181056
 30
0.0
 10
71.060947
 20
64.920000
 30
0.0
 10
88.930470
 20
55.945553
 30
0.0
  0
SPLINE
  5
1fc
100
AcDbEntity
  8
0
 62
7
100
AcDbSpline
 70
8
 71
3
 72
8
 73
4
 74
0
 40
0
 40
0
 40
0
 40
0
 40
1
 40
1
 40
1
 40
1
 10
97.691183
 20
44.261227
 30
0.0
 10
95.301938
 20
45.495225
 30
0.0
 10
94.789005
 20
45.570975
 30
0.0
 10
93.625515
 20
44.861655
 30
0.0
  0
LWPOLYLINE
  5
1fd
100
AcDbEntity
  8
0
 62
7
100
AcDbPolyline
 90
3
 70
0
 10
103.309305
 20
44.907382
 30
0.0
 10
99.818610
 20
43.162455
 30
0.0
 10
97.691183
 20
44.261227
 30
0.0
  0
SPLINE
  5
1fe
100
AcDbEntity
  8
0
 62
7
100
AcDbSpline
 70
8
 71
3
 72
8
 73
4
 74
0
 40
0
 40
0
 40
0
 40
0
 40
1
 40
1
 40
1
 40
1
 10
95.005515
 20
43.285815
 30
0.0
 10
96.212483
 20
42.692205
 30
0.0
 10
97.200000
 20
42.130372
 30
0.0
 10
97.200000
 20
42.037305
 30
0.0
  0
SPLINE
  5
1ff
100
AcDbEntity
  8
0
 62
7
100
AcDbSpline
 70
8
 71
3
 72
8
 73
4
 74
0
 40
0
 40
0
 40
0
 40
0
 40
1
 40
1
 40
1
 40
1
 10
97.200000
 20
42.037305
 30
0.0
 10
97.200000
 20
41.944237
 30
0.0
 10
96.203190
 20
41.373082
 30
0.0
 10
94.984860
 20
40.768065
 30
0.0
  0
LWPOLYLINE
  5
200
100
AcDbEntity
  8
0
 62
7
100
AcDbPolyline
 90
3
 70
0
 10
93.625515
 20
44.861655
 30
0.0
 10
92.811023
 20
44.365110
 30
0.0
 10
95.005515
 20
43.285815
 30
0.0
  0
SPLINE
  5
201
100
AcDbEntity
  8
0
 62
7
100
AcDbSpline
 70
8
 71
3
 72
8
 73
4
 74
0
 40
0
 40
0
 40
0
 40
0
 40
1
 40
1
 40
1
 40
1
 10
93.724860
 20
39.159840
 30
0.0
 10
94.250190
 20
38.880330
 30
0.0
 10
94.873575
 20
38.676015
 30
0.0
 10
95.110170
 20
38.705820
 30
0.0
  0
SPLINE
  5
202
100
AcDbEntity
  8
0
 62
7
100
AcDbSpline
 70
8
 71
3
 72
8
 73
4
 74
0
 40
0
 40
0
 40
0
 40
0
 40
1
 40
1
 40
1
 40
1
 10
95.110170
 20
38.705820
 30
0.0
 10
95.346765
 20
38.735595
 30
0.0
 10
100.228590
 20
41.082000
 30
0.0
 10
105.958673
 20
43.920000
 30
0.0
  0
LWPOLYLINE
  5
203
100
AcDbEntity
  8
0
 62
7
100
AcDbPolyline
 90
3
 70
0
 10
94.984860
 20
40.768065
 30
0.0
 10
92.769720
 20
39.668048
 30
0.0
 10
93.724860
 20
39.159840
 30
0.0
  0
SPLINE
  5
204
100
AcDbEntity
  8
0
 62
7
100
AcDbSpline
 70
8
 71
3
 72
8
 73
4
 74
0
 40
0
 40
0
 40
0
 40
0
 40
1
 40
1
 40
1
 40
1
 10
40.756318
 20
51.234000
 30
0.0
 10
42.562344
 20
50.341920
 30
0.0
 10
44.171630
 20
49.508903
 30
0.0
 10
44.332510
 20
49.382850
 30
0.0
  0
SPLINE
  5
205
100
AcDbEntity
  8
0
 62
7
100
AcDbSpline
 70
8
 71
3
 72
8
 73
4
 74
0
 40
0
 40
0
 40
0
 40
0
 40
1
 40
1
 40
1
 40
1
 10
44.332510
 20
49.382850
 30
0.0
 10
44.539210
 20
49.220895
 30
0.0
 10
43.994549
 20
48.838507
 30
0.0
 10
42.475888
 20
48.079380
 30
0.0
  0
SPLINE
  5
206
100
AcDbEntity
  8
0
 62
7
100
AcDbSpline
 70
8
 71
3
 72
8
 73
4
 74
0
 40
0
 40
0
 40
0
 40
0
 40
1
 40
1
 40
1
 40
1
 10
42.475888
 20
48.079380
 30
0.0
 10
41.293864
 20
47.488523
 30
0.0
 10
40.280096
 20
46.929600
 30
0.0
 10
40.223066
 20
46.837320
 30
0.0
  0
SPLINE
  5
207
100
AcDbEntity
  8
0
 62
7
100
AcDbSpline
 70
8
 71
3
 72
8
 73
4
 74
0
 40
0
 40
0
 40
0
 40
0
 40
1
 40
1
 40
1
 40
1
 10
40.223066
 20
46.837320
 30
0.0
 10
40.166036
 20
46.745047
 30
0.0
 10
40.609762
 20
46.466730
 30
0.0
 10
41.209121
 20
46.218832
 30
0.0
  0
LWPOLYLINE
  5
208
100
AcDbEntity
  8
0
 62
7
100
AcDbPolyline
 90
1
 70
1
 10
105.958673
 20
43.920000
 30
0.0
  0
SPLINE
  5
209
100
AcDbEntity
  8
0
 62
7
100
AcDbSpline
 70
8
 71
3
 72
8
 73
4
 74
0
 40
0
 40
0
 40
0
 40
0
 40
1
 40
1
 40
1
 40
1
 10
52.785178
 20
46.193317
 30
0.0
 10
53.321330
 20
46.435087
 30
0.0
 10
53.760000
 20
46.719990
 30
0.0
 10
53.760000
 20
46.826437
 30
0.0
  0
SPLINE
  5
20a
100
AcDbEntity
  8
0
 62
7
100
AcDbSpline
 70
8
 71
3
 72
8
 73
4
 74
0
 40
0
 40
0
 40
0
 40
0
 40
1
 40
1
 40
1
 40
1
 10
53.760000
 20
46.826437
 30
0.0
 10
53.760000
 20
46.932877
 30
0.0
 10
46.843757
 20
50.480392
 30
0.0
 10
38.390568
 20
54.709792
 30
0.0
  0
LWPOLYLINE
  5
20b
100
AcDbEntity
  8
0
 62
7
100
AcDbPolyline
 90
7
 70
0
 10
41.209121
 20
46.218832
 30
0.0
 10
42.298862
 20
45.768105
 30
0.0
 10
44.669432
 20
46.934483
 30
0.0
 10
47.040000
 20
48.100853
 30
0.0
 10
49.425178
 20
46.927290
 30
0.0
 10
51.810356
 20
45.753735
 30
0.0
 10
52.785178
 20
46.193317
 30
0.0
  0
SPLINE
  5
20c
100
AcDbEntity
  8
0
 62
7
100
AcDbSpline
 70
8
 71
3
 72
8
 73
4
 74
0
 40
0
 40
0
 40
0
 40
0
 40
1
 40
1
 40
1
 40
1
 10
21.850067
 20
60.701981
 30
0.0
 10
22.438530
 20
60.394682
 30
0.0
 10
23.433000
 20
59.899992
 30
0.0
 10
24.060000
 20
59.602670
 30
0.0
  0
SPLINE
  5
20d
100
AcDbEntity
  8
0
 62
7
100
AcDbSpline
 70
8
 71
3
 72
8
 73
4
 74
0
 40
0
 40
0
 40
0
 40
0
 40
1
 40
1
 40
1
 40
1
 10
24.060000
 20
59.602670
 30
0.0
 10
24.687000
 20
59.305346
 30
0.0
 10
25.200000
 20
58.971332
 30
0.0
 10
25.200000
 20
58.860413
 30
0.0
  0
SPLINE
  5
20e
100
AcDbEntity
  8
0
 62
7
100
AcDbSpline
 70
8
 71
3
 72
8
 73
4
 74
0
 40
0
 40
0
 40
0
 40
0
 40
1
 40
1
 40
1
 40
1
 10
25.200000
 20
58.860413
 30
0.0
 10
25.200000
 20
58.749492
 30
0.0
 10
24.228000
 20
58.182308
 30
0.0
 10
23.040000
 20
57.600000
 30
0.0
  0
SPLINE
  5
20f
100
AcDbEntity
  8
0
 62
7
100
AcDbSpline
 70
8
 71
3
 72
8
 73
4
 74
0
 40
0
 40
0
 40
0
 40
0
 40
1
 40
1
 40
1
 40
1
 10
23.040000
 20
57.600000
 30
0.0
 10
21.852000
 20
57.017693
 30
0.0
 10
20.884934
 20
56.482478
 30
0.0
 10
20.890963
 20
56.410628
 30
0.0
  0
SPLINE
  5
210
100
AcDbEntity
  8
0
 62
7
100
AcDbSpline
 70
8
 71
3
 72
8
 73
4
 74
0
 40
0
 40
0
 40
0
 40
0
 40
1
 40
1
 40
1
 40
1
 10
20.890963
 20
56.410628
 30
0.0
 10
20.896963
 20
56.338778
 30
0.0
 10
21.386229
 20
56.051333
 30
0.0
 10
21.978156
 20
55.771853
 30
0.0
  0
LWPOLYLINE
  5
211
100
AcDbEntity
  8
0
 62
7
100
AcDbPolyline
 90
5
 70
0
 10
38.390568
 20
54.709792
 30
0.0
 10
23.021137
 20
62.399614
 30
0.0
 10
21.900635
 20
61.830158
 30
0.0
 10
20.780134
 20
61.260704
 30
0.0
 10
21.850067
 20
60.701981
 30
0.0
  0
SPLINE
  5
212
100
AcDbEntity
  8
0
 62
7
100
AcDbSpline
 70
8
 71
3
 72
8
 73
4
 74
0
 40
0
 40
0
 40
0
 40
0
 40
1
 40
1
 40
1
 40
1
 10
31.412820
 20
55.909868
 30
0.0
 10
33.386102
 20
54.925440
 30
0.0
 10
35.005538
 20
54.066000
 30
0.0
 10
35.011568
 20
54.000000
 30
0.0
  0
SPLINE
  5
213
100
AcDbEntity
  8
0
 62
7
100
AcDbSpline
 70
8
 71
3
 72
8
 73
4
 74
0
 40
0
 40
0
 40
0
 40
0
 40
1
 40
1
 40
1
 40
1
 10
35.011568
 20
54.000000
 30
0.0
 10
35.017568
 20
53.934000
 30
0.0
 10
31.084457
 20
51.942667
 30
0.0
 10
26.271264
 20
49.574820
 30
0.0
  0
SPLINE
  5
214
100
AcDbEntity
  8
0
 62
7
100
AcDbSpline
 70
8
 71
3
 72
8
 73
4
 74
0
 40
0
 40
0
 40
0
 40
0
 40
1
 40
1
 40
1
 40
1
 10
26.271264
 20
49.574820
 30
0.0
 10
21.458069
 20
47.206973
 30
0.0
 10
17.520000
 20
45.185640
 30
0.0
 10
17.520000
 20
45.082965
 30
0.0
  0
SPLINE
  5
215
100
AcDbEntity
  8
0
 62
7
100
AcDbSpline
 70
8
 71
3
 72
8
 73
4
 74
0
 40
0
 40
0
 40
0
 40
0
 40
1
 40
1
 40
1
 40
1
 10
17.520000
 20
45.082965
 30
0.0
 10
17.520000
 20
44.980290
 30
0.0
 10
17.699493
 20
44.519887
 30
0.0
 10
17.918874
 20
44.059838
 30
0.0
  0
LWPOLYLINE
  5
216
100
AcDbEntity
  8
0
 62
7
100
AcDbPolyline
 90
5
 70
0
 10
21.978156
 20
55.771853
 30
0.0
 10
23.054386
 20
55.263705
 30
0.0
 10
25.439710
 20
56.481720
 30
0.0
 10
27.825036
 20
57.699728
 30
0.0
 10
31.412820
 20
55.909868
 30
0.0
  0
SPLINE
  5
217
100
AcDbEntity
  8
0
 62
7
100
AcDbSpline
 70
8
 71
3
 72
8
 73
4
 74
0
 40
0
 40
0
 40
0
 40
0
 40
1
 40
1
 40
1
 40
1
 10
23.513495
 20
50.691720
 30
0.0
 10
27.076064
 20
52.445273
 30
0.0
 10
29.992942
 20
53.939482
 30
0.0
 10
29.995447
 20
54.012173
 30
0.0
  0
SPLINE
  5
218
100
AcDbEntity
  8
0
 62
7
100
AcDbSpline
 70
8
 71
3
 72
8
 73
4
 74
0
 40
0
 40
0
 40
0
 40
0
 40
1
 40
1
 40
1
 40
1
 10
29.995447
 20
54.012173
 30
0.0
 10
29.997923
 20
54.084848
 30
0.0
 10
29.511581
 20
54.381645
 30
0.0
 10
28.914626
 20
54.671670
 30
0.0
  0
LWPOLYLINE
  5
219
100
AcDbEntity
  8
0
 62
7
100
AcDbPolyline
 90
5
 70
0
 10
17.918874
 20
44.059838
 30
0.0
 10
18.317747
 20
43.223392
 30
0.0
 10
27.895190
 20
48.039682
 30
0.0
 10
37.472636
 20
52.855965
 30
0.0
 10
40.756318
 20
51.234000
 30
0.0
  0
SPLINE
  5
21a
100
AcDbEntity
  8
0
 62
7
100
AcDbSpline
 70
8
 71
3
 72
8
 73
4
 74
0
 40
0
 40
0
 40
0
 40
0
 40
1
 40
1
 40
1
 40
1
 10
17.208446
 20
54.667282
 30
0.0
 10
16.587801
 20
54.398618
 30
0.0
 10
16.080000
 20
54.111150
 30
0.0
 10
16.080000
 20
54.028462
 30
0.0
  0
SPLINE
  5
21b
100
AcDbEntity
  8
0
 62
7
100
AcDbSpline
 70
8
 71
3
 72
8
 73
4
 74
0
 40
0
 40
0
 40
0
 40
0
 40
1
 40
1
 40
1
 40
1
 10
16.080000
 20
54.028462
 30
0.0
 10
16.080000
 20
53.945768
 30
0.0
 10
17.052000
 20
53.416560
 30
0.0
 10
18.240000
 20
52.852440
 30
0.0
  0
SPLINE
  5
21c
100
AcDbEntity
  8
0
 62
7
100
AcDbSpline
 70
8
 71
3
 72
8
 73
4
 74
0
 40
0
 40
0
 40
0
 40
0
 40
1
 40
1
 40
1
 40
1
 10
18.240000
 20
52.852440
 30
0.0
 10
19.428000
 20
52.288320
 30
0.0
 10
20.400000
 20
51.746318
 30
0.0
 10
20.400000
 20
51.648000
 30
0.0
  0
SPLINE
  5
21d
100
AcDbEntity
  8
0
 62
7
100
AcDbSpline
 70
8
 71
3
 72
8
 73
4
 74
0
 40
0
 40
0
 40
0
 40
0
 40
1
 40
1
 40
1
 40
1
 10
20.400000
 20
51.648000
 30
0.0
 10
20.400000
 20
51.549683
 30
0.0
 10
19.329551
 20
50.931660
 30
0.0
 10
18.021226
 20
50.274615
 30
0.0
  0
LWPOLYLINE
  5
21e
100
AcDbEntity
  8
0
 62
7
100
AcDbPolyline
 90
7
 70
0
 10
28.914626
 20
54.671670
 30
0.0
 10
27.829253
 20
55.198980
 30
0.0
 10
25.434626
 20
53.997300
 30
0.0
 10
23.040000
 20
52.795627
 30
0.0
 10
20.688446
 20
53.975685
 30
0.0
 10
18.336891
 20
55.155750
 30
0.0
 10
17.208446
 20
54.667282
 30
0.0
  0
SPLINE
  5
21f
100
AcDbEntity
  8
0
 62
7
100
AcDbSpline
 70
8
 71
3
 72
8
 73
4
 74
0
 40
0
 40
0
 40
0
 40
0
 40
1
 40
1
 40
1
 40
1
 10
16.012369
 20
48.166275
 30
0.0
 10
16.250893
 20
47.577105
 30
0.0
 10
16.498404
 20
47.297107
 30
0.0
 10
16.709191
 20
47.377995
 30
0.0
  0
SPLINE
  5
220
100
AcDbEntity
  8
0
 62
7
100
AcDbSpline
 70
8
 71
3
 72
8
 73
4
 74
0
 40
0
 40
0
 40
0
 40
0
 40
1
 40
1
 40
1
 40
1
 10
16.709191
 20
47.377995
 30
0.0
 10
16.888989
 20
47.446995
 30
0.0
 10
19.950925
 20
48.938167
 30
0.0
 10
23.513495
 20
50.691720
 30
0.0
  0
LWPOLYLINE
  5
221
100
AcDbEntity
  8
0
 62
7
100
AcDbPolyline
 90
3
 70
0
 10
18.021226
 20
50.274615
 30
0.0
 10
15.642451
 20
49.080000
 30
0.0
 10
16.012369
 20
48.166275
 30
0.0
  0
LWPOLYLINE
  5
222
100
AcDbEntity
  8
0
 62
7
100
AcDbPolyline
 90
1
 70
1
 10
23.513495
 20
50.691720
 30
0.0
  0
SPLINE
  5
223
100
AcDbEntity
  8
0
 62
7
100
AcDbSpline
 70
8
 71
3
 72
8
 73
4
 74
0
 40
0
 40
0
 40
0
 40
0
 40
1
 40
1
 40
1
 40
1
 10
109.478738
 20
52.776217
 30
0.0
 10
108.269430
 20
53.376750
 30
0.0
 10
107.280000
 20
53.929552
 30
0.0
 10
107.280000
 20
54.004672
 30
0.0
  0
SPLINE
  5
224
100
AcDbEntity
  8
0
 62
7
100
AcDbSpline
 70
8
 71
3
 72
8
 73
4
 74
0
 40
0
 40
0
 40
0
 40
0
 40
1
 40
1
 40
1
 40
1
 10
107.280000
 20
54.004672
 30
0.0
 10
107.280000
 20
54.079792
 30
0.0
 10
108.252000
 20
54.617692
 30
0.0
 10
109.440000
 20
55.200000
 30
0.0
  0
SPLINE
  5
225
100
AcDbEntity
  8
0
 62
7
100
AcDbSpline
 70
8
 71
3
 72
8
 73
4
 74
0
 40
0
 40
0
 40
0
 40
0
 40
1
 40
1
 40
1
 40
1
 10
109.440000
 20
55.200000
 30
0.0
 10
110.628000
 20
55.782308
 30
0.0
 10
111.600000
 20
56.323005
 30
0.0
 10
111.600000
 20
56.401545
 30
0.0
  0
SPLINE
  5
226
100
AcDbEntity
  8
0
 62
7
100
AcDbSpline
 70
8
 71
3
 72
8
 73
4
 74
0
 40
0
 40
0
 40
0
 40
0
 40
1
 40
1
 40
1
 40
1
 10
111.600000
 20
56.401545
 30
0.0
 10
111.600000
 20
56.480092
 30
0.0
 10
111.111578
 20
56.781645
 30
0.0
 10
110.514630
 20
57.071668
 30
0.0
  0
LWPOLYLINE
  5
227
100
AcDbEntity
  8
0
 62
7
100
AcDbPolyline
 90
3
 70
0
 10
110.528505
 20
51.042172
 30
0.0
 10
111.677475
 20
51.684337
 30
0.0
 10
109.478738
 20
52.776217
 30
0.0
  0
SPLINE
  5
228
100
AcDbEntity
  8
0
 62
7
100
AcDbSpline
 70
8
 71
3
 72
8
 73
4
 74
0
 40
0
 40
0
 40
0
 40
0
 40
1
 40
1
 40
1
 40
1
 10
101.163240
 20
56.935605
 30
0.0
 10
99.247462
 20
57.890801
 30
0.0
 10
97.680000
 20
58.752509
 30
0.0
 10
97.680000
 20
58.850510
 30
0.0
  0
SPLINE
  5
229
100
AcDbEntity
  8
0
 62
7
100
AcDbSpline
 70
8
 71
3
 72
8
 73
4
 74
0
 40
0
 40
0
 40
0
 40
0
 40
1
 40
1
 40
1
 40
1
 10
97.680000
 20
58.850510
 30
0.0
 10
97.680000
 20
58.948512
 30
0.0
 10
102.690015
 20
61.527991
 30
0.0
 10
108.813360
 20
64.582684
 30
0.0
  0
LWPOLYLINE
  5
22a
100
AcDbEntity
  8
0
 62
7
100
AcDbPolyline
 90
5
 70
0
 10
110.514630
 20
57.071668
 30
0.0
 10
109.429253
 20
57.598982
 30
0.0
 10
107.037870
 20
56.398927
 30
0.0
 10
104.646488
 20
55.198882
 30
0.0
 10
101.163240
 20
56.935605
 30
0.0
  0
SPLINE
  5
22b
100
AcDbEntity
  8
0
 62
7
100
AcDbSpline
 70
8
 71
3
 72
8
 73
4
 74
0
 40
0
 40
0
 40
0
 40
0
 40
1
 40
1
 40
1
 40
1
 10
119.820338
 20
71.128337
 30
0.0
 10
119.750813
 20
71.673752
 30
0.0
 10
119.666678
 20
72.153140
 30
0.0
 10
119.633340
 20
72.193642
 30
0.0
  0
SPLINE
  5
22c
100
AcDbEntity
  8
0
 62
7
100
AcDbSpline
 70
8
 71
3
 72
8
 73
4
 74
0
 40
0
 40
0
 40
0
 40
0
 40
1
 40
1
 40
1
 40
1
 10
119.633340
 20
72.193642
 30
0.0
 10
119.599965
 20
72.234149
 30
0.0
 10
114.052388
 20
69.506704
 30
0.0
 10
107.305320
 20
66.132660
 30
0.0
  0
LWPOLYLINE
  5
22d
100
AcDbEntity
  8
0
 62
7
100
AcDbPolyline
 90
3
 70
0
 10
108.813360
 20
64.582684
 30
0.0
 10
119.946720
 20
70.136672
 30
0.0
 10
119.820338
 20
71.128337
 30
0.0
  0
SPLINE
  5
22e
100
AcDbEntity
  8
0
 62
7
100
AcDbSpline
 70
8
 71
3
 72
8
 73
4
 74
0
 40
0
 40
0
 40
0
 40
0
 40
1
 40
1
 40
1
 40
1
 10
89.940000
 20
64.765627
 30
0.0
 10
91.161000
 20
65.371982
 30
0.0
 10
92.160000
 20
65.949576
 30
0.0
 10
92.160000
 20
66.049168
 30
0.0
  0
SPLINE
  5
22f
100
AcDbEntity
  8
0
 62
7
100
AcDbSpline
 70
8
 71
3
 72
8
 73
4
 74
0
 40
0
 40
0
 40
0
 40
0
 40
1
 40
1
 40
1
 40
1
 10
92.160000
 20
66.049168
 30
0.0
 10
92.160000
 20
66.148759
 30
0.0
 10
91.729192
 20
66.450024
 30
0.0
 10
91.202655
 20
66.718644
 30
0.0
  0
LWPOLYLINE
  5
230
100
AcDbEntity
  8
0
 62
7
100
AcDbPolyline
 90
5
 70
0
 10
107.305320
 20
66.132660
 30
0.0
 10
95.037923
 20
59.998036
 30
0.0
 10
91.378957
 20
61.830600
 30
0.0
 10
87.720000
 20
63.663163
 30
0.0
 10
89.940000
 20
64.765627
 30
0.0
  0
SPLINE
  5
231
100
AcDbEntity
  8
0
 62
7
100
AcDbSpline
 70
8
 71
3
 72
8
 73
4
 74
0
 40
0
 40
0
 40
0
 40
0
 40
1
 40
1
 40
1
 40
1
 10
79.677345
 20
66.718644
 30
0.0
 10
79.150807
 20
66.450024
 30
0.0
 10
78.720000
 20
66.150602
 30
0.0
 10
78.720000
 20
66.053260
 30
0.0
  0
SPLINE
  5
232
100
AcDbEntity
  8
0
 62
7
100
AcDbSpline
 70
8
 71
3
 72
8
 73
4
 74
0
 40
0
 40
0
 40
0
 40
0
 40
1
 40
1
 40
1
 40
1
 10
78.720000
 20
66.053260
 30
0.0
 10
78.720000
 20
65.955919
 30
0.0
 10
85.605000
 20
62.409487
 30
0.0
 10
94.020000
 20
58.172304
 30
0.0
  0
SPLINE
  5
233
100
AcDbEntity
  8
0
 62
7
100
AcDbSpline
 70
8
 71
3
 72
8
 73
4
 74
0
 40
0
 40
0
 40
0
 40
0
 40
1
 40
1
 40
1
 40
1
 10
94.020000
 20
58.172304
 30
0.0
 10
102.435000
 20
53.935117
 30
0.0
 10
109.333395
 20
50.452957
 30
0.0
 10
109.349775
 20
50.434170
 30
0.0
  0
SPLINE
  5
234
100
AcDbEntity
  8
0
 62
7
100
AcDbSpline
 70
8
 71
3
 72
8
 73
4
 74
0
 40
0
 40
0
 40
0
 40
0
 40
1
 40
1
 40
1
 40
1
 10
109.349775
 20
50.434170
 30
0.0
 10
109.366125
 20
50.415345
 30
0.0
 10
109.896577
 20
50.688975
 30
0.0
 10
110.528505
 20
51.042172
 30
0.0
  0
LWPOLYLINE
  5
235
100
AcDbEntity
  8
0
 62
7
100
AcDbPolyline
 90
7
 70
0
 10
91.202655
 20
66.718644
 30
0.0
 10
90.245317
 20
67.207044
 30
0.0
 10
87.842655
 20
66.001334
 30
0.0
 10
85.440000
 20
64.795625
 30
0.0
 10
83.037345
 20
66.001334
 30
0.0
 10
80.634682
 20
67.207044
 30
0.0
 10
79.677345
 20
66.718644
 30
0.0
  0
SPLINE
  5
236
100
AcDbEntity
  8
0
 62
7
100
AcDbSpline
 70
8
 71
3
 72
8
 73
4
 74
0
 40
0
 40
0
 40
0
 40
0
 40
1
 40
1
 40
1
 40
1
 10
62.511857
 20
51.044422
 30
0.0
 10
62.978336
 20
51.266752
 30
0.0
 10
63.360000
 20
51.538860
 30
0.0
 10
63.360000
 20
51.648998
 30
0.0
  0
SPLINE
  5
237
100
AcDbEntity
  8
0
 62
7
100
AcDbSpline
 70
8
 71
3
 72
8
 73
4
 74
0
 40
0
 40
0
 40
0
 40
0
 40
1
 40
1
 40
1
 40
1
 10
63.360000
 20
51.648998
 30
0.0
 10
63.360000
 20
51.759135
 30
0.0
 10
62.388000
 20
52.294515
 30
0.0
 10
61.200000
 20
52.838730
 30
0.0
  0
SPLINE
  5
238
100
AcDbEntity
  8
0
 62
7
100
AcDbSpline
 70
8
 71
3
 72
8
 73
4
 74
0
 40
0
 40
0
 40
0
 40
0
 40
1
 40
1
 40
1
 40
1
 10
61.200000
 20
52.838730
 30
0.0
 10
60.012000
 20
53.382952
 30
0.0
 10
59.040000
 20
53.895097
 30
0.0
 10
59.040000
 20
53.976840
 30
0.0
  0
SPLINE
  5
239
100
AcDbEntity
  8
0
 62
7
100
AcDbSpline
 70
8
 71
3
 72
8
 73
4
 74
0
 40
0
 40
0
 40
0
 40
0
 40
1
 40
1
 40
1
 40
1
 10
59.040000
 20
53.976840
 30
0.0
 10
59.040000
 20
54.058575
 30
0.0
 10
60.012000
 20
54.602970
 30
0.0
 10
61.200000
 20
55.186598
 30
0.0
  0
SPLINE
  5
23a
100
AcDbEntity
  8
0
 62
7
100
AcDbSpline
 70
8
 71
3
 72
8
 73
4
 74
0
 40
0
 40
0
 40
0
 40
0
 40
1
 40
1
 40
1
 40
1
 10
61.200000
 20
55.186598
 30
0.0
 10
62.388000
 20
55.770218
 30
0.0
 10
63.360000
 20
56.333760
 30
0.0
 10
63.360000
 20
56.438910
 30
0.0
  0
SPLINE
  5
23b
100
AcDbEntity
  8
0
 62
7
100
AcDbSpline
 70
8
 71
3
 72
8
 73
4
 74
0
 40
0
 40
0
 40
0
 40
0
 40
1
 40
1
 40
1
 40
1
 10
63.360000
 20
56.438910
 30
0.0
 10
63.360000
 20
56.544060
 30
0.0
 10
62.935176
 20
56.846820
 30
0.0
 10
62.415948
 20
57.111714
 30
0.0
  0
LWPOLYLINE
  5
23c
100
AcDbEntity
  8
0
 62
7
100
AcDbPolyline
 90
1
 70
1
 10
110.528505
 20
51.042172
 30
0.0
  0
SPLINE
  5
23d
100
AcDbEntity
  8
0
 62
7
100
AcDbSpline
 70
8
 71
3
 72
8
 73
4
 74
0
 40
0
 40
0
 40
0
 40
0
 40
1
 40
1
 40
1
 40
1
 10
53.190386
 20
56.883645
 30
0.0
 10
51.262070
 20
57.871708
 30
0.0
 10
49.683376
 20
58.766452
 30
0.0
 10
49.682180
 20
58.872118
 30
0.0
  0
SPLINE
  5
23e
100
AcDbEntity
  8
0
 62
7
100
AcDbSpline
 70
8
 71
3
 72
8
 73
4
 74
0
 40
0
 40
0
 40
0
 40
0
 40
1
 40
1
 40
1
 40
1
 10
49.682180
 20
58.872118
 30
0.0
 10
49.680979
 20
58.977782
 30
0.0
 10
57.730080
 20
63.067964
 30
0.0
 10
67.569068
 20
67.961408
 30
0.0
  0
LWPOLYLINE
  5
23f
100
AcDbEntity
  8
0
 62
7
100
AcDbPolyline
 90
5
 70
0
 10
62.415948
 20
57.111714
 30
0.0
 10
61.471898
 20
57.593332
 30
0.0
 10
59.084156
 20
56.340390
 30
0.0
 10
56.696414
 20
55.087447
 30
0.0
 10
53.190386
 20
56.883645
 30
0.0
  0
SPLINE
  5
240
100
AcDbEntity
  8
0
 62
7
100
AcDbSpline
 70
8
 71
3
 72
8
 73
4
 74
0
 40
0
 40
0
 40
0
 40
0
 40
1
 40
1
 40
1
 40
1
 10
97.308420
 20
70.969099
 30
0.0
 10
98.559022
 20
70.348094
 30
0.0
 10
99.698542
 20
69.840000
 30
0.0
 10
99.840682
 20
69.840000
 30
0.0
  0
SPLINE
  5
241
100
AcDbEntity
  8
0
 62
7
100
AcDbSpline
 70
8
 71
3
 72
8
 73
4
 74
0
 40
0
 40
0
 40
0
 40
0
 40
1
 40
1
 40
1
 40
1
 10
99.840682
 20
69.840000
 30
0.0
 10
99.982822
 20
69.840000
 30
0.0
 10
100.551210
 20
70.070638
 30
0.0
 10
101.103765
 20
70.352530
 30
0.0
  0
LWPOLYLINE
  5
242
100
AcDbEntity
  8
0
 62
7
100
AcDbPolyline
 90
11
 70
0
 10
67.569068
 20
67.961408
 30
0.0
 10
85.458135
 20
76.858582
 30
0.0
 10
89.109067
 20
75.064495
 30
0.0
 10
92.760000
 20
73.270406
 30
0.0
 10
90.360000
 20
72.062026
 30
0.0
 10
87.960000
 20
70.853645
 30
0.0
 10
89.102662
 20
70.297706
 30
0.0
 10
90.245325
 20
69.741766
 30
0.0
 10
92.639962
 20
70.919980
 30
0.0
 10
95.034600
 20
72.098198
 30
0.0
 10
97.308420
 20
70.969099
 30
0.0
  0
SPLINE
  5
243
100
AcDbEntity
  8
0
 62
7
100
AcDbSpline
 70
8
 71
3
 72
8
 73
4
 74
0
 40
0
 40
0
 40
0
 40
0
 40
1
 40
1
 40
1
 40
1
 10
70.987231
 20
84.146504
 30
0.0
 10
72.204254
 20
83.535276
 30
0.0
 10
73.200000
 20
82.950482
 30
0.0
 10
73.200000
 20
82.846964
 30
0.0
  0
SPLINE
  5
244
100
AcDbEntity
  8
0
 62
7
100
AcDbSpline
 70
8
 71
3
 72
8
 73
4
 74
0
 40
0
 40
0
 40
0
 40
0
 40
1
 40
1
 40
1
 40
1
 10
73.200000
 20
82.846964
 30
0.0
 10
73.200000
 20
82.743442
 30
0.0
 10
72.228000
 20
82.182308
 30
0.0
 10
71.040000
 20
81.600000
 30
0.0
  0
SPLINE
  5
245
100
AcDbEntity
  8
0
 62
7
100
AcDbSpline
 70
8
 71
3
 72
8
 73
4
 74
0
 40
0
 40
0
 40
0
 40
0
 40
1
 40
1
 40
1
 40
1
 10
71.040000
 20
81.600000
 30
0.0
 10
69.852000
 20
81.017693
 30
0.0
 10
68.880406
 20
80.482476
 30
0.0
 10
68.880900
 20
80.410630
 30
0.0
  0
SPLINE
  5
246
100
AcDbEntity
  8
0
 62
7
100
AcDbSpline
 70
8
 71
3
 72
8
 73
4
 74
0
 40
0
 40
0
 40
0
 40
0
 40
1
 40
1
 40
1
 40
1
 10
68.880900
 20
80.410630
 30
0.0
 10
68.881875
 20
80.267369
 30
0.0
 10
70.799834
 20
79.440000
 30
0.0
 10
71.130946
 20
79.440000
 30
0.0
  0
SPLINE
  5
247
100
AcDbEntity
  8
0
 62
7
100
AcDbSpline
 70
8
 71
3
 72
8
 73
4
 74
0
 40
0
 40
0
 40
0
 40
0
 40
1
 40
1
 40
1
 40
1
 10
71.130946
 20
79.440000
 30
0.0
 10
71.244192
 20
79.440000
 30
0.0
 10
72.351223
 20
79.946938
 30
0.0
 10
73.591012
 20
80.566529
 30
0.0
  0
LWPOLYLINE
  5
248
100
AcDbEntity
  8
0
 62
7
100
AcDbPolyline
 90
7
 70
0
 10
101.103765
 20
70.352530
 30
0.0
 10
102.108405
 20
70.865062
 30
0.0
 10
86.570010
 20
78.634996
 30
0.0
 10
71.031604
 20
86.404932
 30
0.0
 10
69.903034
 20
85.831378
 30
0.0
 10
68.774462
 20
85.257821
 30
0.0
 10
70.987231
 20
84.146504
 30
0.0
  0
SPLINE
  5
249
100
AcDbEntity
  8
0
 62
7
100
AcDbSpline
 70
8
 71
3
 72
8
 73
4
 74
0
 40
0
 40
0
 40
0
 40
0
 40
1
 40
1
 40
1
 40
1
 10
79.322587
 20
79.967681
 30
0.0
 10
81.235163
 20
79.018724
 30
0.0
 10
82.800000
 20
78.159924
 30
0.0
 10
82.800000
 20
78.059237
 30
0.0
  0
SPLINE
  5
24a
100
AcDbEntity
  8
0
 62
7
100
AcDbSpline
 70
8
 71
3
 72
8
 73
4
 74
0
 40
0
 40
0
 40
0
 40
0
 40
1
 40
1
 40
1
 40
1
 10
82.800000
 20
78.059237
 30
0.0
 10
82.800000
 20
77.958552
 30
0.0
 10
74.754871
 20
73.852920
 30
0.0
 10
64.921936
 20
68.935613
 30
0.0
  0
LWPOLYLINE
  5
24b
100
AcDbEntity
  8
0
 62
7
100
AcDbPolyline
 90
3
 70
0
 10
73.591012
 20
80.566529
 30
0.0
 10
75.845175
 20
81.693058
 30
0.0
 10
79.322587
 20
79.967681
 30
0.0
  0
SPLINE
  5
24c
100
AcDbEntity
  8
0
 62
7
100
AcDbSpline
 70
8
 71
3
 72
8
 73
4
 74
0
 40
0
 40
0
 40
0
 40
0
 40
1
 40
1
 40
1
 40
1
 10
41.940000
 20
64.765627
 30
0.0
 10
43.161000
 20
65.371982
 30
0.0
 10
44.160000
 20
65.949576
 30
0.0
 10
44.160000
 20
66.049168
 30
0.0
  0
SPLINE
  5
24d
100
AcDbEntity
  8
0
 62
7
100
AcDbSpline
 70
8
 71
3
 72
8
 73
4
 74
0
 40
0
 40
0
 40
0
 40
0
 40
1
 40
1
 40
1
 40
1
 10
44.160000
 20
66.049168
 30
0.0
 10
44.160000
 20
66.148759
 30
0.0
 10
43.729196
 20
66.450024
 30
0.0
 10
43.202657
 20
66.718644
 30
0.0
  0
LWPOLYLINE
  5
24e
100
AcDbEntity
  8
0
 62
7
100
AcDbPolyline
 90
5
 70
0
 10
64.921936
 20
68.935613
 30
0.0
 10
47.043871
 20
59.995056
 30
0.0
 10
43.381937
 20
61.829110
 30
0.0
 10
39.720000
 20
63.663163
 30
0.0
 10
41.940000
 20
64.765627
 30
0.0
  0
SPLINE
  5
24f
100
AcDbEntity
  8
0
 62
7
100
AcDbSpline
 70
8
 71
3
 72
8
 73
4
 74
0
 40
0
 40
0
 40
0
 40
0
 40
1
 40
1
 40
1
 40
1
 10
35.045944
 20
63.712102
 30
0.0
 10
56.015592
 20
53.194140
 30
0.0
 10
61.117606
 20
50.663138
 30
0.0
 10
61.371856
 20
50.652367
 30
0.0
  0
SPLINE
  5
250
100
AcDbEntity
  8
0
 62
7
100
AcDbSpline
 70
8
 71
3
 72
8
 73
4
 74
0
 40
0
 40
0
 40
0
 40
0
 40
1
 40
1
 40
1
 40
1
 10
61.371856
 20
50.652367
 30
0.0
 10
61.532378
 20
50.645617
 30
0.0
 10
62.045378
 20
50.822002
 30
0.0
 10
62.511856
 20
51.044452
 30
0.0
  0
LWPOLYLINE
  5
251
100
AcDbEntity
  8
0
 62
7
100
AcDbPolyline
 90
9
 70
0
 10
43.202657
 20
66.718644
 30
0.0
 10
42.245316
 20
67.207044
 30
0.0
 10
39.842657
 20
66.001334
 30
0.0
 10
37.440000
 20
64.795625
 30
0.0
 10
35.037612
 20
66.001198
 30
0.0
 10
32.635224
 20
67.206772
 30
0.0
 10
31.503557
 20
66.631644
 30
0.0
 10
30.371890
 20
66.056515
 30
0.0
 10
35.045944
 20
63.712102
 30
0.0
  0
SPLINE
  5
252
100
AcDbEntity
  8
0
 62
7
100
AcDbSpline
 70
8
 71
3
 72
8
 73
4
 74
0
 40
0
 40
0
 40
0
 40
0
 40
1
 40
1
 40
1
 40
1
 10
15.464457
 20
51.574703
 30
0.0
 10
15.537492
 20
51.692873
 30
0.0
 10
15.420409
 20
51.857415
 30
0.0
 10
15.204271
 20
51.940350
 30
0.0
  0
SPLINE
  5
253
100
AcDbEntity
  8
0
 62
7
100
AcDbSpline
 70
8
 71
3
 72
8
 73
4
 74
0
 40
0
 40
0
 40
0
 40
0
 40
1
 40
1
 40
1
 40
1
 10
15.204271
 20
51.940350
 30
0.0
 10
14.737028
 20
52.119653
 30
0.0
 10
14.530126
 20
51.971775
 30
0.0
 10
14.750131
 20
51.615818
 30
0.0
  0
SPLINE
  5
254
100
AcDbEntity
  8
0
 62
7
100
AcDbSpline
 70
8
 71
3
 72
8
 73
4
 74
0
 40
0
 40
0
 40
0
 40
0
 40
1
 40
1
 40
1
 40
1
 10
14.750131
 20
51.615818
 30
0.0
 10
14.943014
 20
51.303728
 30
0.0
 10
15.284827
 20
51.284055
 30
0.0
 10
15.464457
 20
51.574718
 30
0.0
  0
LWPOLYLINE
  5
255
100
AcDbEntity
  8
0
 62
7
100
AcDbPolyline
 90
1
 70
1
 10
62.511856
 20
51.044452
 30
0.0
  0
SPLINE
  5
256
100
AcDbEntity
  8
0
 62
7
100
AcDbSpline
 70
8
 71
3
 72
8
 73
4
 74
0
 40
0
 40
0
 40
0
 40
0
 40
1
 40
1
 40
1
 40
1
 10
14.751857
 20
55.844303
 30
0.0
 10
15.218336
 20
56.066902
 30
0.0
 10
15.600000
 20
56.315377
 30
0.0
 10
15.600000
 20
56.396625
 30
0.0
  0
SPLINE
  5
257
100
AcDbEntity
  8
0
 62
7
100
AcDbSpline
 70
8
 71
3
 72
8
 73
4
 74
0
 40
0
 40
0
 40
0
 40
0
 40
1
 40
1
 40
1
 40
1
 10
15.600000
 20
56.396625
 30
0.0
 10
15.600000
 20
56.596283
 30
0.0
 10
13.410002
 20
57.650002
 30
0.0
 10
13.275206
 20
57.515206
 30
0.0
  0
SPLINE
  5
258
100
AcDbEntity
  8
0
 62
7
100
AcDbSpline
 70
8
 71
3
 72
8
 73
4
 74
0
 40
0
 40
0
 40
0
 40
0
 40
1
 40
1
 40
1
 40
1
 10
13.275206
 20
57.515206
 30
0.0
 10
13.152050
 20
57.392050
 30
0.0
 10
13.646741
 20
55.440000
 30
0.0
 10
13.801108
 20
55.440000
 30
0.0
  0
SPLINE
  5
259
100
AcDbEntity
  8
0
 62
7
100
AcDbSpline
 70
8
 71
3
 72
8
 73
4
 74
0
 40
0
 40
0
 40
0
 40
0
 40
1
 40
1
 40
1
 40
1
 10
13.801108
 20
55.440000
 30
0.0
 10
13.857545
 20
55.440000
 30
0.0
 10
14.285379
 20
55.622002
 30
0.0
 10
14.751857
 20
55.844452
 30
0.0
  0
LWPOLYLINE
  5
25a
100
AcDbEntity
  8
0
 62
7
100
AcDbPolyline
 90
1
 70
1
 10
15.464457
 20
51.574718
 30
0.0
  0
SPLINE
  5
25b
100
AcDbEntity
  8
0
 62
7
100
AcDbSpline
 70
8
 71
3
 72
8
 73
4
 74
0
 40
0
 40
0
 40
0
 40
0
 40
1
 40
1
 40
1
 40
1
 10
118.598977
 20
56.523420
 30
0.0
 10
118.700813
 20
56.904188
 30
0.0
 10
118.747073
 20
57.252779
 30
0.0
 10
118.701780
 20
57.298072
 30
0.0
  0
SPLINE
  5
25c
100
AcDbEntity
  8
0
 62
7
100
AcDbSpline
 70
8
 71
3
 72
8
 73
4
 74
0
 40
0
 40
0
 40
0
 40
0
 40
1
 40
1
 40
1
 40
1
 10
118.701780
 20
57.298072
 30
0.0
 10
118.578750
 20
57.421098
 30
0.0
 10
116.880000
 20
56.576280
 30
0.0
 10
116.880000
 20
56.392073
 30
0.0
  0
SPLINE
  5
25d
100
AcDbEntity
  8
0
 62
7
100
AcDbSpline
 70
8
 71
3
 72
8
 73
4
 74
0
 40
0
 40
0
 40
0
 40
0
 40
1
 40
1
 40
1
 40
1
 10
116.880000
 20
56.392073
 30
0.0
 10
116.880000
 20
56.181098
 30
0.0
 10
117.898530
 20
55.698375
 30
0.0
 10
118.186913
 20
55.772670
 30
0.0
  0
SPLINE
  5
25e
100
AcDbEntity
  8
0
 62
7
100
AcDbSpline
 70
8
 71
3
 72
8
 73
4
 74
0
 40
0
 40
0
 40
0
 40
0
 40
1
 40
1
 40
1
 40
1
 10
118.186913
 20
55.772670
 30
0.0
 10
118.311720
 20
55.804845
 30
0.0
 10
118.497150
 20
56.142660
 30
0.0
 10
118.598977
 20
56.523420
 30
0.0
  0
LWPOLYLINE
  5
25f
100
AcDbEntity
  8
0
 62
7
100
AcDbPolyline
 90
2
 70
0
 10
14.751857
 20
55.844452
 30
0.0
 10
14.751857
 20
55.844303
 30
0.0
  0
LWPOLYLINE
  5
260
100
AcDbEntity
  8
0
 62
7
100
AcDbPolyline
 90
1
 70
1
 10
118.598977
 20
56.523420
 30
0.0
  0
SPLINE
  5
261
100
AcDbEntity
  8
0
 62
7
100
AcDbSpline
 70
8
 71
3
 72
8
 73
4
 74
0
 40
0
 40
0
 40
0
 40
0
 40
1
 40
1
 40
1
 40
1
 10
111.711120
 20
58.967608
 30
0.0
 10
112.960238
 20
58.347342
 30
0.0
 10
114.098543
 20
57.839850
 30
0.0
 10
114.240683
 20
57.839850
 30
0.0
  0
SPLINE
  5
262
100
AcDbEntity
  8
0
 62
7
100
AcDbSpline
 70
8
 71
3
 72
8
 73
4
 74
0
 40
0
 40
0
 40
0
 40
0
 40
1
 40
1
 40
1
 40
1
 10
114.240683
 20
57.839850
 30
0.0
 10
114.382823
 20
57.839850
 30
0.0
 10
114.952088
 20
58.070936
 30
0.0
 10
115.505708
 20
58.353374
 30
0.0
  0
LWPOLYLINE
  5
263
100
AcDbEntity
  8
0
 62
7
100
AcDbPolyline
 90
3
 70
0
 10
107.168880
 20
58.967608
 30
0.0
 10
109.440000
 20
60.095365
 30
0.0
 10
111.711120
 20
58.967608
 30
0.0
  0
SPLINE
  5
264
100
AcDbEntity
  8
0
 62
7
100
AcDbSpline
 70
8
 71
3
 72
8
 73
4
 74
0
 40
0
 40
0
 40
0
 40
0
 40
1
 40
1
 40
1
 40
1
 10
114.296145
 20
59.967419
 30
0.0
 10
113.077268
 20
60.572856
 30
0.0
 10
112.080000
 20
61.145294
 30
0.0
 10
112.080000
 20
61.239652
 30
0.0
  0
SPLINE
  5
265
100
AcDbEntity
  8
0
 62
7
100
AcDbSpline
 70
8
 71
3
 72
8
 73
4
 74
0
 40
0
 40
0
 40
0
 40
0
 40
1
 40
1
 40
1
 40
1
 10
112.080000
 20
61.239652
 30
0.0
 10
112.080000
 20
61.580200
 30
0.0
 10
118.843215
 20
64.818628
 30
0.0
 10
119.270917
 20
64.682882
 30
0.0
  0
SPLINE
  5
266
100
AcDbEntity
  8
0
 62
7
100
AcDbSpline
 70
8
 71
3
 72
8
 73
4
 74
0
 40
0
 40
0
 40
0
 40
0
 40
1
 40
1
 40
1
 40
1
 10
119.270917
 20
64.682882
 30
0.0
 10
119.636085
 20
64.566984
 30
0.0
 10
119.720287
 20
64.756997
 30
0.0
 10
119.863080
 20
66.019114
 30
0.0
  0
SPLINE
  5
267
100
AcDbEntity
  8
0
 62
7
100
AcDbSpline
 70
8
 71
3
 72
8
 73
4
 74
0
 40
0
 40
0
 40
0
 40
0
 40
1
 40
1
 40
1
 40
1
 10
119.863080
 20
66.019114
 30
0.0
 10
119.954632
 20
66.828353
 30
0.0
 10
119.995897
 20
67.521516
 30
0.0
 10
119.954775
 20
67.559480
 30
0.0
  0
SPLINE
  5
268
100
AcDbEntity
  8
0
 62
7
100
AcDbSpline
 70
8
 71
3
 72
8
 73
4
 74
0
 40
0
 40
0
 40
0
 40
0
 40
1
 40
1
 40
1
 40
1
 10
119.954775
 20
67.559480
 30
0.0
 10
119.913675
 20
67.597444
 30
0.0
 10
115.941187
 20
65.656886
 30
0.0
 10
111.127080
 20
63.247135
 30
0.0
  0
LWPOLYLINE
  5
269
100
AcDbEntity
  8
0
 62
7
100
AcDbPolyline
 90
3
 70
0
 10
115.505708
 20
58.353374
 30
0.0
 10
116.512298
 20
58.866896
 30
0.0
 10
114.296145
 20
59.967419
 30
0.0
  0
SPLINE
  5
26a
100
AcDbEntity
  8
0
 62
7
100
AcDbSpline
 70
8
 71
3
 72
8
 73
4
 74
0
 40
0
 40
0
 40
0
 40
0
 40
1
 40
1
 40
1
 40
1
 10
103.327080
 20
58.363490
 30
0.0
 10
103.851187
 20
58.087238
 30
0.0
 10
104.418997
 20
57.856440
 30
0.0
 10
104.588880
 20
57.850608
 30
0.0
  0
SPLINE
  5
26b
100
AcDbEntity
  8
0
 62
7
100
AcDbSpline
 70
8
 71
3
 72
8
 73
4
 74
0
 40
0
 40
0
 40
0
 40
0
 40
1
 40
1
 40
1
 40
1
 10
104.588880
 20
57.850608
 30
0.0
 10
104.758762
 20
57.844758
 30
0.0
 10
105.919762
 20
58.347492
 30
0.0
 10
107.168880
 20
58.967758
 30
0.0
  0
LWPOLYLINE
  5
26c
100
AcDbEntity
  8
0
 62
7
100
AcDbPolyline
 90
3
 70
0
 10
111.127080
 20
63.247135
 30
0.0
 10
102.374160
 20
58.865768
 30
0.0
 10
103.327080
 20
58.363490
 30
0.0
  0
SPLINE
  5
26d
100
AcDbEntity
  8
0
 62
7
100
AcDbSpline
 70
8
 71
3
 72
8
 73
4
 74
0
 40
0
 40
0
 40
0
 40
0
 40
1
 40
1
 40
1
 40
1
 10
119.403885
 20
60.982866
 30
0.0
 10
119.638103
 20
62.369152
 30
0.0
 10
119.328195
 20
62.555514
 30
0.0
 10
117.951870
 20
61.856046
 30
0.0
  0
SPLINE
  5
26e
100
AcDbEntity
  8
0
 62
7
100
AcDbSpline
 70
8
 71
3
 72
8
 73
4
 74
0
 40
0
 40
0
 40
0
 40
0
 40
1
 40
1
 40
1
 40
1
 10
117.951870
 20
61.856046
 30
0.0
 10
116.736015
 20
61.238130
 30
0.0
 10
116.732468
 20
61.258175
 30
0.0
 10
118.200000
 20
60.453474
 30
0.0
  0
SPLINE
  5
26f
100
AcDbEntity
  8
0
 62
7
100
AcDbSpline
 70
8
 71
3
 72
8
 73
4
 74
0
 40
0
 40
0
 40
0
 40
0
 40
1
 40
1
 40
1
 40
1
 10
118.200000
 20
60.453474
 30
0.0
 10
119.219130
 20
59.894648
 30
0.0
 10
119.220105
 20
59.895080
 30
0.0
 10
119.403885
 20
60.982866
 30
0.0
  0
LWPOLYLINE
  5
270
100
AcDbEntity
  8
0
 62
7
100
AcDbPolyline
 90
2
 70
0
 10
107.168880
 20
58.967758
 30
0.0
 10
107.168880
 20
58.967608
 30
0.0
  0
LWPOLYLINE
  5
271
100
AcDbEntity
  8
0
 62
7
100
AcDbPolyline
 90
1
 70
1
 10
119.403885
 20
60.982866
 30
0.0
  0
SPLINE
  5
272
100
AcDbEntity
  8
0
 62
7
100
AcDbSpline
 70
8
 71
3
 72
8
 73
4
 74
0
 40
0
 40
0
 40
0
 40
0
 40
1
 40
1
 40
1
 40
1
 10
65.289076
 20
77.379610
 30
0.0
 10
66.010085
 20
77.005560
 30
0.0
 10
67.005000
 20
76.511410
 30
0.0
 10
67.500000
 20
76.281494
 30
0.0
  0
SPLINE
  5
273
100
AcDbEntity
  8
0
 62
7
100
AcDbSpline
 70
8
 71
3
 72
8
 73
4
 74
0
 40
0
 40
0
 40
0
 40
0
 40
1
 40
1
 40
1
 40
1
 10
67.500000
 20
76.281494
 30
0.0
 10
67.995000
 20
76.051580
 30
0.0
 10
68.400000
 20
75.775462
 30
0.0
 10
68.400000
 20
75.667898
 30
0.0
  0
SPLINE
  5
274
100
AcDbEntity
  8
0
 62
7
100
AcDbSpline
 70
8
 71
3
 72
8
 73
4
 74
0
 40
0
 40
0
 40
0
 40
0
 40
1
 40
1
 40
1
 40
1
 10
68.400000
 20
75.667898
 30
0.0
 10
68.400000
 20
75.560332
 30
0.0
 10
66.833621
 20
74.691338
 30
0.0
 10
64.919156
 20
73.736798
 30
0.0
  0
LWPOLYLINE
  5
275
100
AcDbEntity
  8
0
 62
7
100
AcDbPolyline
 90
11
 70
0
 10
62.695644
 20
70.347826
 30
0.0
 10
78.109815
 20
78.055648
 30
0.0
 10
76.977293
 20
78.631212
 30
0.0
 10
75.844777
 20
79.206772
 30
0.0
 10
73.442388
 20
78.001198
 30
0.0
 10
71.040000
 20
76.795625
 30
0.0
 10
68.637612
 20
78.001198
 30
0.0
 10
66.235224
 20
79.206772
 30
0.0
 10
65.106688
 20
78.633235
 30
0.0
 10
63.978151
 20
78.059696
 30
0.0
 10
65.289076
 20
77.379610
 30
0.0
  0
SPLINE
  5
276
100
AcDbEntity
  8
0
 62
7
100
AcDbSpline
 70
8
 71
3
 72
8
 73
4
 74
0
 40
0
 40
0
 40
0
 40
0
 40
1
 40
1
 40
1
 40
1
 10
43.559156
 20
80.939885
 30
0.0
 10
33.725621
 20
85.856122
 30
0.0
 10
25.680000
 20
89.935296
 30
0.0
 10
25.680000
 20
90.004716
 30
0.0
  0
SPLINE
  5
277
100
AcDbEntity
  8
0
 62
7
100
AcDbSpline
 70
8
 71
3
 72
8
 73
4
 74
0
 40
0
 40
0
 40
0
 40
0
 40
1
 40
1
 40
1
 40
1
 10
25.680000
 20
90.004716
 30
0.0
 10
25.680000
 20
90.074136
 30
0.0
 10
27.244862
 20
90.920666
 30
0.0
 10
29.157473
 20
91.885896
 30
0.0
  0
LWPOLYLINE
  5
278
100
AcDbEntity
  8
0
 62
7
100
AcDbPolyline
 90
3
 70
0
 10
64.919156
 20
73.736798
 30
0.0
 10
61.438312
 20
72.001270
 30
0.0
 10
43.559156
 20
80.939885
 30
0.0
  0
SPLINE
  5
279
100
AcDbEntity
  8
0
 62
7
100
AcDbSpline
 70
8
 71
3
 72
8
 73
4
 74
0
 40
0
 40
0
 40
0
 40
0
 40
1
 40
1
 40
1
 40
1
 10
38.404070
 20
91.682076
 30
0.0
 10
38.911920
 20
91.941160
 30
0.0
 10
39.383114
 20
92.243234
 30
0.0
 10
39.451169
 20
92.353348
 30
0.0
  0
SPLINE
  5
27a
100
AcDbEntity
  8
0
 62
7
100
AcDbSpline
 70
8
 71
3
 72
8
 73
4
 74
0
 40
0
 40
0
 40
0
 40
0
 40
1
 40
1
 40
1
 40
1
 10
39.451169
 20
92.353348
 30
0.0
 10
39.519224
 20
92.463466
 30
0.0
 10
38.608550
 20
93.027226
 30
0.0
 10
37.427453
 20
93.606151
 30
0.0
  0
SPLINE
  5
27b
100
AcDbEntity
  8
0
 62
7
100
AcDbSpline
 70
8
 71
3
 72
8
 73
4
 74
0
 40
0
 40
0
 40
0
 40
0
 40
1
 40
1
 40
1
 40
1
 10
37.427453
 20
93.606151
 30
0.0
 10
36.246353
 20
94.185074
 30
0.0
 10
35.280000
 20
94.722307
 30
0.0
 10
35.280000
 20
94.800000
 30
0.0
  0
SPLINE
  5
27c
100
AcDbEntity
  8
0
 62
7
100
AcDbSpline
 70
8
 71
3
 72
8
 73
4
 74
0
 40
0
 40
0
 40
0
 40
0
 40
1
 40
1
 40
1
 40
1
 10
35.280000
 20
94.800000
 30
0.0
 10
35.280000
 20
94.877692
 30
0.0
 10
36.252000
 20
95.417693
 30
0.0
 10
37.440000
 20
96.000000
 30
0.0
  0
SPLINE
  5
27d
100
AcDbEntity
  8
0
 62
7
100
AcDbSpline
 70
8
 71
3
 72
8
 73
4
 74
0
 40
0
 40
0
 40
0
 40
0
 40
1
 40
1
 40
1
 40
1
 10
37.440000
 20
96.000000
 30
0.0
 10
38.628000
 20
96.582307
 30
0.0
 10
39.600000
 20
97.123003
 30
0.0
 10
39.600000
 20
97.201548
 30
0.0
  0
SPLINE
  5
27e
100
AcDbEntity
  8
0
 62
7
100
AcDbSpline
 70
8
 71
3
 72
8
 73
4
 74
0
 40
0
 40
0
 40
0
 40
0
 40
1
 40
1
 40
1
 40
1
 10
39.600000
 20
97.201548
 30
0.0
 10
39.600000
 20
97.280090
 30
0.0
 10
39.112344
 20
97.581274
 30
0.0
 10
38.516318
 20
97.870846
 30
0.0
  0
LWPOLYLINE
  5
27f
100
AcDbEntity
  8
0
 62
7
100
AcDbPolyline
 90
5
 70
0
 10
29.157473
 20
91.885896
 30
0.0
 10
32.634944
 20
93.640856
 30
0.0
 10
35.057828
 20
92.425934
 30
0.0
 10
37.480709
 20
91.211014
 30
0.0
 10
38.404070
 20
91.682076
 30
0.0
  0
SPLINE
  5
280
100
AcDbEntity
  8
0
 62
7
100
AcDbSpline
 70
8
 71
3
 72
8
 73
4
 74
0
 40
0
 40
0
 40
0
 40
0
 40
1
 40
1
 40
1
 40
1
 10
14.936114
 20
85.750524
 30
0.0
 10
14.641251
 20
84.835006
 30
0.0
 10
14.400000
 20
83.964700
 30
0.0
 10
14.400000
 20
83.816513
 30
0.0
  0
SPLINE
  5
281
100
AcDbEntity
  8
0
 62
7
100
AcDbSpline
 70
8
 71
3
 72
8
 73
4
 74
0
 40
0
 40
0
 40
0
 40
0
 40
1
 40
1
 40
1
 40
1
 10
14.400000
 20
83.816513
 30
0.0
 10
14.400000
 20
83.668324
 30
0.0
 10
15.279405
 20
83.114652
 30
0.0
 10
16.354234
 20
82.586129
 30
0.0
  0
LWPOLYLINE
  5
282
100
AcDbEntity
  8
0
 62
7
100
AcDbPolyline
 90
5
 70
0
 10
38.516318
 20
97.870846
 30
0.0
 10
37.432637
 20
98.397338
 30
0.0
 10
26.452433
 20
92.906220
 30
0.0
 10
15.472227
 20
87.415102
 30
0.0
 10
14.936114
 20
85.750524
 30
0.0
  0
SPLINE
  5
283
100
AcDbEntity
  8
0
 62
7
100
AcDbSpline
 70
8
 71
3
 72
8
 73
4
 74
0
 40
0
 40
0
 40
0
 40
0
 40
1
 40
1
 40
1
 40
1
 10
19.217951
 20
82.089158
 30
0.0
 10
19.718166
 20
82.344348
 30
0.0
 10
20.183114
 20
82.643234
 30
0.0
 10
20.251168
 20
82.753349
 30
0.0
  0
SPLINE
  5
284
100
AcDbEntity
  8
0
 62
7
100
AcDbSpline
 70
8
 71
3
 72
8
 73
4
 74
0
 40
0
 40
0
 40
0
 40
0
 40
1
 40
1
 40
1
 40
1
 10
20.251168
 20
82.753349
 30
0.0
 10
20.319223
 20
82.863466
 30
0.0
 10
19.408551
 20
83.427226
 30
0.0
 10
18.227452
 20
84.006152
 30
0.0
  0
SPLINE
  5
285
100
AcDbEntity
  8
0
 62
7
100
AcDbSpline
 70
8
 71
3
 72
8
 73
4
 74
0
 40
0
 40
0
 40
0
 40
0
 40
1
 40
1
 40
1
 40
1
 10
18.227452
 20
84.006152
 30
0.0
 10
17.046353
 20
84.585074
 30
0.0
 10
16.080181
 20
85.117524
 30
0.0
 10
16.080402
 20
85.189370
 30
0.0
  0
SPLINE
  5
286
100
AcDbEntity
  8
0
 62
7
100
AcDbSpline
 70
8
 71
3
 72
8
 73
4
 74
0
 40
0
 40
0
 40
0
 40
0
 40
1
 40
1
 40
1
 40
1
 10
16.080402
 20
85.189370
 30
0.0
 10
16.080623
 20
85.261213
 30
0.0
 10
17.657638
 20
86.113944
 30
0.0
 10
19.584880
 20
87.084322
 30
0.0
  0
LWPOLYLINE
  5
287
100
AcDbEntity
  8
0
 62
7
100
AcDbPolyline
 90
3
 70
0
 10
16.354234
 20
82.586129
 30
0.0
 10
18.308468
 20
81.625174
 30
0.0
 10
19.217951
 20
82.089158
 30
0.0
  0
SPLINE
  5
288
100
AcDbEntity
  8
0
 62
7
100
AcDbSpline
 70
8
 71
3
 72
8
 73
4
 74
0
 40
0
 40
0
 40
0
 40
0
 40
1
 40
1
 40
1
 40
1
 10
46.987232
 20
67.346503
 30
0.0
 10
48.204254
 20
66.735276
 30
0.0
 10
49.200000
 20
66.148064
 30
0.0
 10
49.200000
 20
66.041582
 30
0.0
  0
SPLINE
  5
289
100
AcDbEntity
  8
0
 62
7
100
AcDbSpline
 70
8
 71
3
 72
8
 73
4
 74
0
 40
0
 40
0
 40
0
 40
0
 40
1
 40
1
 40
1
 40
1
 10
49.200000
 20
66.041582
 30
0.0
 10
49.200000
 20
65.935102
 30
0.0
 10
48.204446
 20
65.356850
 30
0.0
 10
46.987658
 20
64.756576
 30
0.0
  0
LWPOLYLINE
  5
28a
100
AcDbEntity
  8
0
 62
7
100
AcDbPolyline
 90
11
 70
0
 10
19.584880
 20
87.084322
 30
0.0
 10
23.088956
 20
88.848641
 30
0.0
 10
41.124478
 20
79.857806
 30
0.0
 10
59.160000
 20
70.866970
 30
0.0
 10
55.499316
 20
69.031639
 30
0.0
 10
51.838632
 20
67.196312
 30
0.0
 10
49.436928
 20
68.401541
 30
0.0
 10
47.035224
 20
69.606773
 30
0.0
 10
45.904844
 20
69.032297
 30
0.0
 10
44.774462
 20
68.457820
 30
0.0
 10
46.987232
 20
67.346503
 30
0.0
  0
SPLINE
  5
28b
100
AcDbEntity
  8
0
 62
7
100
AcDbSpline
 70
8
 71
3
 72
8
 73
4
 74
0
 40
0
 40
0
 40
0
 40
0
 40
1
 40
1
 40
1
 40
1
 10
45.727658
 20
63.163193
 30
0.0
 10
46.251446
 20
62.887104
 30
0.0
 10
46.815332
 20
62.656440
 30
0.0
 10
46.980740
 20
62.650608
 30
0.0
  0
SPLINE
  5
28c
100
AcDbEntity
  8
0
 62
7
100
AcDbSpline
 70
8
 71
3
 72
8
 73
4
 74
0
 40
0
 40
0
 40
0
 40
0
 40
1
 40
1
 40
1
 40
1
 10
46.980740
 20
62.650608
 30
0.0
 10
47.146145
 20
62.644758
 30
0.0
 10
54.217852
 20
66.108520
 30
0.0
 10
62.695644
 20
70.347826
 30
0.0
  0
LWPOLYLINE
  5
28d
100
AcDbEntity
  8
0
 62
7
100
AcDbPolyline
 90
3
 70
0
 10
46.987658
 20
64.756576
 30
0.0
 10
44.775314
 20
63.665174
 30
0.0
 10
45.727658
 20
63.163193
 30
0.0
  0
SPLINE
  5
28e
100
AcDbEntity
  8
0
 62
7
100
AcDbSpline
 70
8
 71
3
 72
8
 73
4
 74
0
 40
0
 40
0
 40
0
 40
0
 40
1
 40
1
 40
1
 40
1
 10
107.298870
 20
68.627968
 30
0.0
 10
113.919263
 20
71.921350
 30
0.0
 10
119.388075
 20
74.668072
 30
0.0
 10
119.451795
 20
74.731796
 30
0.0
  0
SPLINE
  5
28f
100
AcDbEntity
  8
0
 62
7
100
AcDbSpline
 70
8
 71
3
 72
8
 73
4
 74
0
 40
0
 40
0
 40
0
 40
0
 40
1
 40
1
 40
1
 40
1
 10
119.451795
 20
74.731796
 30
0.0
 10
119.515545
 20
74.795515
 30
0.0
 10
119.497095
 20
75.265207
 30
0.0
 10
119.410920
 20
75.775548
 30
0.0
  0
SPLINE
  5
290
100
AcDbEntity
  8
0
 62
7
100
AcDbSpline
 70
8
 71
3
 72
8
 73
4
 74
0
 40
0
 40
0
 40
0
 40
0
 40
1
 40
1
 40
1
 40
1
 10
119.410920
 20
75.775548
 30
0.0
 10
119.258865
 20
76.675562
 30
0.0
 10
119.178885
 20
76.740874
 30
0.0
 10
116.748803
 20
77.949432
 30
0.0
  0
LWPOLYLINE
  5
291
100
AcDbEntity
  8
0
 62
7
100
AcDbPolyline
 90
1
 70
1
 10
62.695644
 20
70.347826
 30
0.0
  0
SPLINE
  5
292
100
AcDbEntity
  8
0
 62
7
100
AcDbSpline
 70
8
 71
3
 72
8
 73
4
 74
0
 40
0
 40
0
 40
0
 40
0
 40
1
 40
1
 40
1
 40
1
 10
113.173583
 20
78.675641
 30
0.0
 10
112.585148
 20
78.389758
 30
0.0
 10
112.155045
 20
78.072790
 30
0.0
 10
112.217790
 20
77.971265
 30
0.0
  0
SPLINE
  5
293
100
AcDbEntity
  8
0
 62
7
100
AcDbSpline
 70
8
 71
3
 72
8
 73
4
 74
0
 40
0
 40
0
 40
0
 40
0
 40
1
 40
1
 40
1
 40
1
 10
112.217790
 20
77.971265
 30
0.0
 10
112.280565
 20
77.869740
 30
0.0
 10
113.247210
 20
77.328874
 30
0.0
 10
114.365948
 20
76.769342
 30
0.0
  0
SPLINE
  5
294
100
AcDbEntity
  8
0
 62
7
100
AcDbSpline
 70
8
 71
3
 72
8
 73
4
 74
0
 40
0
 40
0
 40
0
 40
0
 40
1
 40
1
 40
1
 40
1
 10
114.365948
 20
76.769342
 30
0.0
 10
115.484692
 20
76.209812
 30
0.0
 10
116.400030
 20
75.689084
 30
0.0
 10
116.400030
 20
75.612170
 30
0.0
  0
SPLINE
  5
295
100
AcDbEntity
  8
0
 62
7
100
AcDbSpline
 70
8
 71
3
 72
8
 73
4
 74
0
 40
0
 40
0
 40
0
 40
0
 40
1
 40
1
 40
1
 40
1
 10
116.400030
 20
75.612170
 30
0.0
 10
116.400030
 20
75.535256
 30
0.0
 10
114.833647
 20
74.691338
 30
0.0
 10
112.919183
 20
73.736798
 30
0.0
  0
LWPOLYLINE
  5
296
100
AcDbEntity
  8
0
 62
7
100
AcDbPolyline
 90
3
 70
0
 10
116.748803
 20
77.949432
 30
0.0
 10
114.243458
 20
79.195426
 30
0.0
 10
113.173583
 20
78.675641
 30
0.0
  0
SPLINE
  5
297
100
AcDbEntity
  8
0
 62
7
100
AcDbSpline
 70
8
 71
3
 72
8
 73
4
 74
0
 40
0
 40
0
 40
0
 40
0
 40
1
 40
1
 40
1
 40
1
 10
91.559182
 20
80.939885
 30
0.0
 10
81.725617
 20
85.856122
 30
0.0
 10
73.680000
 20
89.950862
 30
0.0
 10
73.680000
 20
90.039305
 30
0.0
  0
SPLINE
  5
298
100
AcDbEntity
  8
0
 62
7
100
AcDbSpline
 70
8
 71
3
 72
8
 73
4
 74
0
 40
0
 40
0
 40
0
 40
0
 40
1
 40
1
 40
1
 40
1
 10
73.680000
 20
90.039305
 30
0.0
 10
73.680000
 20
90.127750
 30
0.0
 10
75.243773
 20
90.984002
 30
0.0
 10
77.155057
 20
91.942090
 30
0.0
  0
LWPOLYLINE
  5
299
100
AcDbEntity
  8
0
 62
7
100
AcDbPolyline
 90
3
 70
0
 10
112.919183
 20
73.736798
 30
0.0
 10
109.438343
 20
72.001270
 30
0.0
 10
91.559182
 20
80.939885
 30
0.0
  0
SPLINE
  5
29a
100
AcDbEntity
  8
0
 62
7
100
AcDbSpline
 70
8
 71
3
 72
8
 73
4
 74
0
 40
0
 40
0
 40
0
 40
0
 40
1
 40
1
 40
1
 40
1
 10
86.343037
 20
91.708426
 30
0.0
 10
86.836365
 20
91.981670
 30
0.0
 10
87.320587
 20
92.281042
 30
0.0
 10
87.419077
 20
92.373696
 30
0.0
  0
SPLINE
  5
29b
100
AcDbEntity
  8
0
 62
7
100
AcDbSpline
 70
8
 71
3
 72
8
 73
4
 74
0
 40
0
 40
0
 40
0
 40
0
 40
1
 40
1
 40
1
 40
1
 10
87.419077
 20
92.373696
 30
0.0
 10
87.517575
 20
92.466352
 30
0.0
 10
86.626575
 20
93.018392
 30
0.0
 10
85.439077
 20
93.600452
 30
0.0
  0
SPLINE
  5
29c
100
AcDbEntity
  8
0
 62
7
100
AcDbSpline
 70
8
 71
3
 72
8
 73
4
 74
0
 40
0
 40
0
 40
0
 40
0
 40
1
 40
1
 40
1
 40
1
 10
85.439077
 20
93.600452
 30
0.0
 10
84.251587
 20
94.182512
 30
0.0
 10
83.280000
 20
94.738706
 30
0.0
 10
83.280000
 20
94.836444
 30
0.0
  0
SPLINE
  5
29d
100
AcDbEntity
  8
0
 62
7
100
AcDbSpline
 70
8
 71
3
 72
8
 73
4
 74
0
 40
0
 40
0
 40
0
 40
0
 40
1
 40
1
 40
1
 40
1
 10
83.280000
 20
94.836444
 30
0.0
 10
83.280000
 20
94.934179
 30
0.0
 10
84.252000
 20
95.469528
 30
0.0
 10
85.440000
 20
96.026108
 30
0.0
  0
SPLINE
  5
29e
100
AcDbEntity
  8
0
 62
7
100
AcDbSpline
 70
8
 71
3
 72
8
 73
4
 74
0
 40
0
 40
0
 40
0
 40
0
 40
1
 40
1
 40
1
 40
1
 10
85.440000
 20
96.026108
 30
0.0
 10
86.628000
 20
96.582684
 30
0.0
 10
87.600000
 20
97.106981
 30
0.0
 10
87.600000
 20
97.191212
 30
0.0
  0
SPLINE
  5
29f
100
AcDbEntity
  8
0
 62
7
100
AcDbSpline
 70
8
 71
3
 72
8
 73
4
 74
0
 40
0
 40
0
 40
0
 40
0
 40
1
 40
1
 40
1
 40
1
 10
87.600000
 20
97.191212
 30
0.0
 10
87.600000
 20
97.275440
 30
0.0
 10
87.112410
 20
97.581242
 30
0.0
 10
86.516460
 20
97.870776
 30
0.0
  0
LWPOLYLINE
  5
2a0
100
AcDbEntity
  8
0
 62
7
100
AcDbPolyline
 90
5
 70
0
 10
77.155057
 20
91.942090
 30
0.0
 10
80.630115
 20
93.684067
 30
0.0
 10
83.038102
 20
92.447842
 30
0.0
 10
85.446082
 20
91.211616
 30
0.0
 10
86.343037
 20
91.708426
 30
0.0
  0
SPLINE
  5
2a1
100
AcDbEntity
  8
0
 62
7
100
AcDbSpline
 70
8
 71
3
 72
8
 73
4
 74
0
 40
0
 40
0
 40
0
 40
0
 40
1
 40
1
 40
1
 40
1
 10
55.376234
 20
82.352530
 30
0.0
 10
55.928788
 20
82.070638
 30
0.0
 10
56.503843
 20
81.840000
 30
0.0
 10
56.654134
 20
81.840000
 30
0.0
  0
SPLINE
  5
2a2
100
AcDbEntity
  8
0
 62
7
100
AcDbSpline
 70
8
 71
3
 72
8
 73
4
 74
0
 40
0
 40
0
 40
0
 40
0
 40
1
 40
1
 40
1
 40
1
 10
56.654134
 20
81.840000
 30
0.0
 10
56.804424
 20
81.840000
 30
0.0
 10
57.939874
 20
82.349525
 30
0.0
 10
59.177356
 20
82.972277
 30
0.0
  0
LWPOLYLINE
  5
2a3
100
AcDbEntity
  8
0
 62
7
100
AcDbPolyline
 90
5
 70
0
 10
86.516460
 20
97.870776
 30
0.0
 10
85.432927
 20
98.397197
 30
0.0
 10
69.902260
 20
90.631128
 30
0.0
 10
54.371594
 20
82.865062
 30
0.0
 10
55.376234
 20
82.352530
 30
0.0
  0
SPLINE
  5
2a4
100
AcDbEntity
  8
0
 62
7
100
AcDbSpline
 70
8
 71
3
 72
8
 73
4
 74
0
 40
0
 40
0
 40
0
 40
0
 40
1
 40
1
 40
1
 40
1
 10
63.677906
 20
82.972277
 30
0.0
 10
64.915726
 20
82.349525
 30
0.0
 10
66.056880
 20
81.840000
 30
0.0
 10
66.213806
 20
81.840000
 30
0.0
  0
SPLINE
  5
2a5
100
AcDbEntity
  8
0
 62
7
100
AcDbSpline
 70
8
 71
3
 72
8
 73
4
 74
0
 40
0
 40
0
 40
0
 40
0
 40
1
 40
1
 40
1
 40
1
 10
66.213806
 20
81.840000
 30
0.0
 10
66.370730
 20
81.840000
 30
0.0
 10
66.952087
 20
82.071086
 30
0.0
 10
67.505710
 20
82.353524
 30
0.0
  0
LWPOLYLINE
  5
2a6
100
AcDbEntity
  8
0
 62
7
100
AcDbPolyline
 90
3
 70
0
 10
59.177356
 20
82.972277
 30
0.0
 10
61.427323
 20
84.104554
 30
0.0
 10
63.677906
 20
82.972277
 30
0.0
  0
SPLINE
  5
2a7
100
AcDbEntity
  8
0
 62
7
100
AcDbSpline
 70
8
 71
3
 72
8
 73
4
 74
0
 40
0
 40
0
 40
0
 40
0
 40
1
 40
1
 40
1
 40
1
 10
66.296148
 20
83.967569
 30
0.0
 10
65.077268
 20
84.572856
 30
0.0
 10
64.080000
 20
85.150858
 30
0.0
 10
64.080000
 20
85.252018
 30
0.0
  0
SPLINE
  5
2a8
100
AcDbEntity
  8
0
 62
7
100
AcDbSpline
 70
8
 71
3
 72
8
 73
4
 74
0
 40
0
 40
0
 40
0
 40
0
 40
1
 40
1
 40
1
 40
1
 10
64.080000
 20
85.252018
 30
0.0
 10
64.080000
 20
85.353175
 30
0.0
 10
65.648612
 20
86.213416
 30
0.0
 10
67.565804
 20
87.163666
 30
0.0
  0
LWPOLYLINE
  5
2a9
100
AcDbEntity
  8
0
 62
7
100
AcDbPolyline
 90
3
 70
0
 10
67.505710
 20
82.353524
 30
0.0
 10
68.512298
 20
82.867046
 30
0.0
 10
66.296148
 20
83.967569
 30
0.0
  0
SPLINE
  5
2aa
100
AcDbEntity
  8
0
 62
7
100
AcDbSpline
 70
8
 71
3
 72
8
 73
4
 74
0
 40
0
 40
0
 40
0
 40
0
 40
1
 40
1
 40
1
 40
1
 10
88.925805
 20
79.950852
 30
0.0
 10
98.756610
 20
75.033557
 30
0.0
 10
106.800000
 20
70.934266
 30
0.0
 10
106.800000
 20
70.841320
 30
0.0
  0
SPLINE
  5
2ab
100
AcDbEntity
  8
0
 62
7
100
AcDbSpline
 70
8
 71
3
 72
8
 73
4
 74
0
 40
0
 40
0
 40
0
 40
0
 40
1
 40
1
 40
1
 40
1
 10
106.800000
 20
70.841320
 30
0.0
 10
106.800000
 20
70.748374
 30
0.0
 10
105.232538
 20
69.890801
 30
0.0
 10
103.316760
 20
68.935604
 30
0.0
  0
LWPOLYLINE
  5
2ac
100
AcDbEntity
  8
0
 62
7
100
AcDbPolyline
 90
3
 70
0
 10
67.565804
 20
87.163666
 30
0.0
 10
71.051604
 20
88.891390
 30
0.0
 10
88.925805
 20
79.950852
 30
0.0
  0
SPLINE
  5
2ad
100
AcDbEntity
  8
0
 62
7
100
AcDbSpline
 70
8
 71
3
 72
8
 73
4
 74
0
 40
0
 40
0
 40
0
 40
0
 40
1
 40
1
 40
1
 40
1
 10
94.987230
 20
67.346504
 30
0.0
 10
96.204255
 20
66.735276
 30
0.0
 10
97.200000
 20
66.152588
 30
0.0
 10
97.200000
 20
66.051636
 30
0.0
  0
SPLINE
  5
2ae
100
AcDbEntity
  8
0
 62
7
100
AcDbSpline
 70
8
 71
3
 72
8
 73
4
 74
0
 40
0
 40
0
 40
0
 40
0
 40
1
 40
1
 40
1
 40
1
 10
97.200000
 20
66.051636
 30
0.0
 10
97.200000
 20
65.950688
 30
0.0
 10
96.203190
 20
65.373082
 30
0.0
 10
94.984860
 20
64.768068
 30
0.0
  0
LWPOLYLINE
  5
2af
100
AcDbEntity
  8
0
 62
7
100
AcDbPolyline
 90
7
 70
0
 10
103.316760
 20
68.935604
 30
0.0
 10
99.833513
 20
67.198880
 30
0.0
 10
97.434368
 20
68.402825
 30
0.0
 10
95.035223
 20
69.606773
 30
0.0
 10
93.904845
 20
69.032297
 30
0.0
 10
92.774460
 20
68.457821
 30
0.0
 10
94.987230
 20
67.346504
 30
0.0
  0
SPLINE
  5
2b0
100
AcDbEntity
  8
0
 62
7
100
AcDbSpline
 70
8
 71
3
 72
8
 73
4
 74
0
 40
0
 40
0
 40
0
 40
0
 40
1
 40
1
 40
1
 40
1
 10
93.724860
 20
63.164630
 30
0.0
 10
94.250190
 20
62.887752
 30
0.0
 10
94.810905
 20
62.656440
 30
0.0
 10
94.970910
 20
62.650608
 30
0.0
  0
SPLINE
  5
2b1
100
AcDbEntity
  8
0
 62
7
100
AcDbSpline
 70
8
 71
3
 72
8
 73
4
 74
0
 40
0
 40
0
 40
0
 40
0
 40
1
 40
1
 40
1
 40
1
 10
94.970910
 20
62.650608
 30
0.0
 10
95.130900
 20
62.644758
 30
0.0
 10
100.678485
 20
65.334586
 30
0.0
 10
107.298870
 20
68.627969
 30
0.0
  0
LWPOLYLINE
  5
2b2
100
AcDbEntity
  8
0
 62
7
100
AcDbPolyline
 90
3
 70
0
 10
94.984860
 20
64.768068
 30
0.0
 10
92.769720
 20
63.668045
 30
0.0
 10
93.724860
 20
63.164630
 30
0.0
  0
LWPOLYLINE
  5
2b3
100
AcDbEntity
  8
0
 62
7
100
AcDbPolyline
 90
1
 70
1
 10
107.298870
 20
68.627969
 30
0.0
  0
SPLINE
  5
2b4
100
AcDbEntity
  8
0
 62
7
100
AcDbSpline
 70
8
 71
3
 72
8
 73
4
 74
0
 40
0
 40
0
 40
0
 40
0
 40
1
 40
1
 40
1
 40
1
 10
40.978207
 20
70.351524
 30
0.0
 10
41.529676
 20
70.070186
 30
0.0
 10
42.097176
 20
69.840000
 30
0.0
 10
42.239318
 20
69.840000
 30
0.0
  0
SPLINE
  5
2b5
100
AcDbEntity
  8
0
 62
7
100
AcDbSpline
 70
8
 71
3
 72
8
 73
4
 74
0
 40
0
 40
0
 40
0
 40
0
 40
1
 40
1
 40
1
 40
1
 10
42.239318
 20
69.840000
 30
0.0
 10
42.381460
 20
69.840000
 30
0.0
 10
43.519762
 20
70.347492
 30
0.0
 10
44.768880
 20
70.967758
 30
0.0
  0
LWPOLYLINE
  5
2b6
100
AcDbEntity
  8
0
 62
7
100
AcDbPolyline
 90
7
 70
0
 10
25.007544
 20
70.665036
 30
0.0
 10
37.393951
 20
76.890074
 30
0.0
 10
41.076974
 20
75.080242
 30
0.0
 10
44.760000
 20
73.270406
 30
0.0
 10
42.367768
 20
72.066727
 30
0.0
 10
39.975538
 20
70.863048
 30
0.0
 10
40.978207
 20
70.351524
 30
0.0
  0
SPLINE
  5
2b7
100
AcDbEntity
  8
0
 62
7
100
AcDbSpline
 70
8
 71
3
 72
8
 73
4
 74
0
 40
0
 40
0
 40
0
 40
0
 40
1
 40
1
 40
1
 40
1
 10
49.311120
 20
70.967758
 30
0.0
 10
50.560238
 20
70.347492
 30
0.0
 10
51.698540
 20
69.840000
 30
0.0
 10
51.840682
 20
69.840000
 30
0.0
  0
SPLINE
  5
2b8
100
AcDbEntity
  8
0
 62
7
100
AcDbSpline
 70
8
 71
3
 72
8
 73
4
 74
0
 40
0
 40
0
 40
0
 40
0
 40
1
 40
1
 40
1
 40
1
 10
51.840682
 20
69.840000
 30
0.0
 10
51.982824
 20
69.840000
 30
0.0
 10
52.551211
 20
70.070638
 30
0.0
 10
53.103766
 20
70.352530
 30
0.0
  0
LWPOLYLINE
  5
2b9
100
AcDbEntity
  8
0
 62
7
100
AcDbPolyline
 90
3
 70
0
 10
44.768880
 20
70.967758
 30
0.0
 10
47.040000
 20
72.095515
 30
0.0
 10
49.311120
 20
70.967758
 30
0.0
  0
SPLINE
  5
2ba
100
AcDbEntity
  8
0
 62
7
100
AcDbSpline
 70
8
 71
3
 72
8
 73
4
 74
0
 40
0
 40
0
 40
0
 40
0
 40
1
 40
1
 40
1
 40
1
 10
21.975375
 20
85.876526
 30
0.0
 10
21.385940
 20
85.590158
 30
0.0
 10
20.960357
 20
85.264142
 30
0.0
 10
21.029634
 20
85.152050
 30
0.0
  0
SPLINE
  5
2bb
100
AcDbEntity
  8
0
 62
7
100
AcDbSpline
 70
8
 71
3
 72
8
 73
4
 74
0
 40
0
 40
0
 40
0
 40
0
 40
1
 40
1
 40
1
 40
1
 10
21.029634
 20
85.152050
 30
0.0
 10
21.098911
 20
85.039958
 30
0.0
 10
22.065583
 20
84.523894
 30
0.0
 10
23.177796
 20
84.005236
 30
0.0
  0
SPLINE
  5
2bc
100
AcDbEntity
  8
0
 62
7
100
AcDbSpline
 70
8
 71
3
 72
8
 73
4
 74
0
 40
0
 40
0
 40
0
 40
0
 40
1
 40
1
 40
1
 40
1
 10
23.177796
 20
84.005236
 30
0.0
 10
24.290008
 20
83.486580
 30
0.0
 10
25.200000
 20
82.971442
 30
0.0
 10
25.200000
 20
82.860482
 30
0.0
  0
SPLINE
  5
2bd
100
AcDbEntity
  8
0
 62
7
100
AcDbSpline
 70
8
 71
3
 72
8
 73
4
 74
0
 40
0
 40
0
 40
0
 40
0
 40
1
 40
1
 40
1
 40
1
 10
25.200000
 20
82.860482
 30
0.0
 10
25.200000
 20
82.749526
 30
0.0
 10
24.228000
 20
82.182307
 30
0.0
 10
23.040000
 20
81.600000
 30
0.0
  0
SPLINE
  5
2be
100
AcDbEntity
  8
0
 62
7
100
AcDbSpline
 70
8
 71
3
 72
8
 73
4
 74
0
 40
0
 40
0
 40
0
 40
0
 40
1
 40
1
 40
1
 40
1
 10
23.040000
 20
81.600000
 30
0.0
 10
21.852000
 20
81.017692
 30
0.0
 10
20.880000
 20
80.476996
 30
0.0
 10
20.880000
 20
80.398452
 30
0.0
  0
SPLINE
  5
2bf
100
AcDbEntity
  8
0
 62
7
100
AcDbSpline
 70
8
 71
3
 72
8
 73
4
 74
0
 40
0
 40
0
 40
0
 40
0
 40
1
 40
1
 40
1
 40
1
 10
20.880000
 20
80.398452
 30
0.0
 10
20.880000
 20
80.319910
 30
0.0
 10
21.354682
 20
80.025028
 30
0.0
 10
21.934849
 20
79.743164
 30
0.0
  0
LWPOLYLINE
  5
2c0
100
AcDbEntity
  8
0
 62
7
100
AcDbPolyline
 90
5
 70
0
 10
53.103766
 20
70.352530
 30
0.0
 10
54.108406
 20
70.865062
 30
0.0
 10
38.577739
 20
78.631128
 30
0.0
 10
23.047073
 20
86.397197
 30
0.0
 10
21.975375
 20
85.876526
 30
0.0
  0
SPLINE
  5
2c1
100
AcDbEntity
  8
0
 62
7
100
AcDbSpline
 70
8
 71
3
 72
8
 73
4
 74
0
 40
0
 40
0
 40
0
 40
0
 40
1
 40
1
 40
1
 40
1
 10
31.305953
 20
79.951522
 30
0.0
 10
33.227678
 20
78.993694
 30
0.0
 10
34.800000
 20
78.135233
 30
0.0
 10
34.800000
 20
78.043831
 30
0.0
  0
SPLINE
  5
2c2
100
AcDbEntity
  8
0
 62
7
100
AcDbSpline
 70
8
 71
3
 72
8
 73
4
 74
0
 40
0
 40
0
 40
0
 40
0
 40
1
 40
1
 40
1
 40
1
 10
34.800000
 20
78.043831
 30
0.0
 10
34.800000
 20
77.952430
 30
0.0
 10
29.695207
 20
75.325927
 30
0.0
 10
23.456018
 20
72.207156
 30
0.0
  0
LWPOLYLINE
  5
2c3
100
AcDbEntity
  8
0
 62
7
100
AcDbPolyline
 90
5
 70
0
 10
21.934849
 20
79.743164
 30
0.0
 10
22.989697
 20
79.230677
 30
0.0
 10
25.400803
 20
80.461850
 30
0.0
 10
27.811908
 20
81.693024
 30
0.0
 10
31.305953
 20
79.951522
 30
0.0
  0
SPLINE
  5
2c4
100
AcDbEntity
  8
0
 62
7
100
AcDbSpline
 70
8
 71
3
 72
8
 73
4
 74
0
 40
0
 40
0
 40
0
 40
0
 40
1
 40
1
 40
1
 40
1
 10
12.201109
 20
65.416697
 30
0.0
 10
12.250099
 20
64.800715
 30
0.0
 10
12.364648
 20
64.328964
 30
0.0
 10
12.455662
 20
64.368365
 30
0.0
  0
SPLINE
  5
2c5
100
AcDbEntity
  8
0
 62
7
100
AcDbSpline
 70
8
 71
3
 72
8
 73
4
 74
0
 40
0
 40
0
 40
0
 40
0
 40
1
 40
1
 40
1
 40
1
 10
12.455662
 20
64.368365
 30
0.0
 10
12.546674
 20
64.407762
 30
0.0
 10
18.195022
 20
67.241266
 30
0.0
 10
25.007544
 20
70.665036
 30
0.0
  0
LWPOLYLINE
  5
2c6
100
AcDbEntity
  8
0
 62
7
100
AcDbPolyline
 90
3
 70
0
 10
23.456018
 20
72.207156
 30
0.0
 10
12.112034
 20
66.536666
 30
0.0
 10
12.201109
 20
65.416697
 30
0.0
  0
LWPOLYLINE
  5
2c7
100
AcDbEntity
  8
0
 62
7
100
AcDbPolyline
 90
1
 70
1
 10
25.007544
 20
70.665036
 30
0.0
  0
SPLINE
  5
2c8
100
AcDbEntity
  8
0
 62
7
100
AcDbSpline
 70
8
 71
3
 72
8
 73
4
 74
0
 40
0
 40
0
 40
0
 40
0
 40
1
 40
1
 40
1
 40
1
 10
17.177212
 20
78.677419
 30
0.0
 10
16.586767
 20
78.390559
 30
0.0
 10
16.155013
 20
78.072790
 30
0.0
 10
16.217760
 20
77.971264
 30
0.0
  0
SPLINE
  5
2c9
100
AcDbEntity
  8
0
 62
7
100
AcDbSpline
 70
8
 71
3
 72
8
 73
4
 74
0
 40
0
 40
0
 40
0
 40
0
 40
1
 40
1
 40
1
 40
1
 10
16.217760
 20
77.971264
 30
0.0
 10
16.280505
 20
77.869740
 30
0.0
 10
17.247178
 20
77.328874
 30
0.0
 10
18.365921
 20
76.769342
 30
0.0
  0
SPLINE
  5
2ca
100
AcDbEntity
  8
0
 62
7
100
AcDbSpline
 70
8
 71
3
 72
8
 73
4
 74
0
 40
0
 40
0
 40
0
 40
0
 40
1
 40
1
 40
1
 40
1
 10
18.365921
 20
76.769342
 30
0.0
 10
19.484665
 20
76.209811
 30
0.0
 10
20.400000
 20
75.689083
 30
0.0
 10
20.400000
 20
75.612170
 30
0.0
  0
SPLINE
  5
2cb
100
AcDbEntity
  8
0
 62
7
100
AcDbSpline
 70
8
 71
3
 72
8
 73
4
 74
0
 40
0
 40
0
 40
0
 40
0
 40
1
 40
1
 40
1
 40
1
 10
20.400000
 20
75.612170
 30
0.0
 10
20.400000
 20
75.535255
 30
0.0
 10
18.829864
 20
74.689466
 30
0.0
 10
16.910811
 20
73.732636
 30
0.0
  0
SPLINE
  5
2cc
100
AcDbEntity
  8
0
 62
7
100
AcDbSpline
 70
8
 71
3
 72
8
 73
4
 74
0
 40
0
 40
0
 40
0
 40
0
 40
1
 40
1
 40
1
 40
1
 10
16.910811
 20
73.732636
 30
0.0
 10
13.977509
 20
72.270110
 30
0.0
 10
13.343338
 20
72.034843
 30
0.0
 10
12.930255
 20
72.255919
 30
0.0
  0
SPLINE
  5
2cd
100
AcDbEntity
  8
0
 62
7
100
AcDbSpline
 70
8
 71
3
 72
8
 73
4
 74
0
 40
0
 40
0
 40
0
 40
0
 40
1
 40
1
 40
1
 40
1
 10
12.930255
 20
72.255919
 30
0.0
 10
12.660004
 20
72.400552
 30
0.0
 10
12.406244
 20
72.483139
 30
0.0
 10
12.366344
 20
72.439444
 30
0.0
  0
SPLINE
  5
2ce
100
AcDbEntity
  8
0
 62
7
100
AcDbSpline
 70
8
 71
3
 72
8
 73
4
 74
0
 40
0
 40
0
 40
0
 40
0
 40
1
 40
1
 40
1
 40
1
 10
12.366344
 20
72.439444
 30
0.0
 10
12.326444
 20
72.395749
 30
0.0
 10
12.217256
 20
71.582210
 30
0.0
 10
12.123704
 20
70.631580
 30
0.0
  0
LWPOLYLINE
  5
2cf
100
AcDbEntity
  8
0
 62
7
100
AcDbPolyline
 90
9
 70
0
 10
28.790923
 20
77.394076
 30
0.0
 10
30.101848
 20
78.059695
 30
0.0
 10
28.973311
 20
78.633235
 30
0.0
 10
27.844776
 20
79.206772
 30
0.0
 10
25.442388
 20
78.001198
 30
0.0
 10
23.040000
 20
76.795624
 30
0.0
 10
20.645374
 20
77.997302
 30
0.0
 10
18.250747
 20
79.198982
 30
0.0
 10
17.177212
 20
78.677419
 30
0.0
  0
SPLINE
  5
2d0
100
AcDbEntity
  8
0
 62
7
100
AcDbSpline
 70
8
 71
3
 72
8
 73
4
 74
0
 40
0
 40
0
 40
0
 40
0
 40
1
 40
1
 40
1
 40
1
 10
19.716805
 20
72.815810
 30
0.0
 10
23.986562
 20
74.967766
 30
0.0
 10
28.069915
 20
77.027988
 30
0.0
 10
28.790923
 20
77.394076
 30
0.0
  0
LWPOLYLINE
  5
2d1
100
AcDbEntity
  8
0
 62
7
100
AcDbPolyline
 90
3
 70
0
 10
12.123704
 20
70.631580
 30
0.0
 10
11.953610
 20
68.903160
 30
0.0
 10
19.716805
 20
72.815810
 30
0.0
  0
SPLINE
  5
2d2
100
AcDbEntity
  8
0
 62
7
100
AcDbSpline
 70
8
 71
3
 72
8
 73
4
 74
0
 40
0
 40
0
 40
0
 40
0
 40
1
 40
1
 40
1
 40
1
 10
14.242970
 20
74.817535
 30
0.0
 10
15.725011
 20
75.634944
 30
0.0
 10
15.725939
 20
75.647138
 30
0.0
 10
14.359878
 20
76.354562
 30
0.0
  0
SPLINE
  5
2d3
100
AcDbEntity
  8
0
 62
7
100
AcDbSpline
 70
8
 71
3
 72
8
 73
4
 74
0
 40
0
 40
0
 40
0
 40
0
 40
1
 40
1
 40
1
 40
1
 10
14.359878
 20
76.354562
 30
0.0
 10
13.655945
 20
76.719098
 30
0.0
 10
13.012803
 20
77.022448
 30
0.0
 10
12.930674
 20
77.028676
 30
0.0
  0
SPLINE
  5
2d4
100
AcDbEntity
  8
0
 62
7
100
AcDbSpline
 70
8
 71
3
 72
8
 73
4
 74
0
 40
0
 40
0
 40
0
 40
0
 40
1
 40
1
 40
1
 40
1
 10
12.930674
 20
77.028676
 30
0.0
 10
12.848545
 20
77.034901
 30
0.0
 10
12.708329
 20
76.583364
 30
0.0
 10
12.619084
 20
76.025256
 30
0.0
  0
SPLINE
  5
2d5
100
AcDbEntity
  8
0
 62
7
100
AcDbSpline
 70
8
 71
3
 72
8
 73
4
 74
0
 40
0
 40
0
 40
0
 40
0
 40
1
 40
1
 40
1
 40
1
 10
12.619084
 20
76.025256
 30
0.0
 10
12.489164
 20
75.212784
 30
0.0
 10
12.540034
 20
74.949662
 30
0.0
 10
12.874281
 20
74.705256
 30
0.0
  0
SPLINE
  5
2d6
100
AcDbEntity
  8
0
 62
7
100
AcDbSpline
 70
8
 71
3
 72
8
 73
4
 74
0
 40
0
 40
0
 40
0
 40
0
 40
1
 40
1
 40
1
 40
1
 10
12.874281
 20
74.705256
 30
0.0
 10
13.396150
 20
74.323654
 30
0.0
 10
13.339021
 20
74.318968
 30
0.0
 10
14.242970
 20
74.817535
 30
0.0
  0
LWPOLYLINE
  5
2d7
100
AcDbEntity
  8
0
 62
7
100
AcDbPolyline
 90
1
 70
1
 10
28.790923
 20
77.394076
 30
0.0
  0
LWPOLYLINE
  5
2d8
100
AcDbEntity
  8
0
 62
7
100
AcDbPolyline
 90
1
 70
1
 10
14.242970
 20
74.817535
 30
0.0
  0
SPLINE
  5
2d9
100
AcDbEntity
  8
0
 62
7
100
AcDbSpline
 70
8
 71
3
 72
8
 73
4
 74
0
 40
0
 40
0
 40
0
 40
0
 40
1
 40
1
 40
1
 40
1
 10
109.478737
 20
76.776216
 30
0.0
 10
108.269430
 20
77.376746
 30
0.0
 10
107.280000
 20
77.953795
 30
0.0
 10
107.280000
 20
78.058548
 30
0.0
  0
SPLINE
  5
2da
100
AcDbEntity
  8
0
 62
7
100
AcDbSpline
 70
8
 71
3
 72
8
 73
4
 74
0
 40
0
 40
0
 40
0
 40
0
 40
1
 40
1
 40
1
 40
1
 10
107.280000
 20
78.058548
 30
0.0
 10
107.280000
 20
78.163298
 30
0.0
 10
108.247883
 20
78.705976
 30
0.0
 10
109.430850
 20
79.264502
 30
0.0
  0
SPLINE
  5
2db
100
AcDbEntity
  8
0
 62
7
100
AcDbSpline
 70
8
 71
3
 72
8
 73
4
 74
0
 40
0
 40
0
 40
0
 40
0
 40
1
 40
1
 40
1
 40
1
 10
109.430850
 20
79.264502
 30
0.0
 10
110.613825
 20
79.823026
 30
0.0
 10
111.585825
 20
80.339479
 30
0.0
 10
111.590850
 20
80.412176
 30
0.0
  0
SPLINE
  5
2dc
100
AcDbEntity
  8
0
 62
7
100
AcDbSpline
 70
8
 71
3
 72
8
 73
4
 74
0
 40
0
 40
0
 40
0
 40
0
 40
1
 40
1
 40
1
 40
1
 10
111.590850
 20
80.412176
 30
0.0
 10
111.596100
 20
80.484873
 30
0.0
 10
111.111577
 20
80.781644
 30
0.0
 10
110.514630
 20
81.071669
 30
0.0
  0
LWPOLYLINE
  5
2dd
100
AcDbEntity
  8
0
 62
7
100
AcDbPolyline
 90
3
 70
0
 10
110.528505
 20
75.042170
 30
0.0
 10
111.677475
 20
75.684338
 30
0.0
 10
109.478737
 20
76.776216
 30
0.0
  0
SPLINE
  5
2de
100
AcDbEntity
  8
0
 62
7
100
AcDbSpline
 70
8
 71
3
 72
8
 73
4
 74
0
 40
0
 40
0
 40
0
 40
0
 40
1
 40
1
 40
1
 40
1
 10
101.162145
 20
80.936148
 30
0.0
 10
99.245760
 20
81.891648
 30
0.0
 10
97.705297
 20
82.753030
 30
0.0
 10
97.738905
 20
82.850330
 30
0.0
  0
SPLINE
  5
2df
100
AcDbEntity
  8
0
 62
7
100
AcDbSpline
 70
8
 71
3
 72
8
 73
4
 74
0
 40
0
 40
0
 40
0
 40
0
 40
1
 40
1
 40
1
 40
1
 10
97.738905
 20
82.850330
 30
0.0
 10
97.772505
 20
82.947631
 30
0.0
 10
101.610405
 20
84.917732
 30
0.0
 10
106.267575
 20
87.228331
 30
0.0
  0
LWPOLYLINE
  5
2e0
100
AcDbEntity
  8
0
 62
7
100
AcDbPolyline
 90
5
 70
0
 10
110.514630
 20
81.071669
 30
0.0
 10
109.429252
 20
81.598982
 30
0.0
 10
107.037870
 20
80.398930
 30
0.0
 10
104.646487
 20
79.198880
 30
0.0
 10
101.162145
 20
80.936148
 30
0.0
  0
SPLINE
  5
2e1
100
AcDbEntity
  8
0
 62
7
100
AcDbSpline
 70
8
 71
3
 72
8
 73
4
 74
0
 40
0
 40
0
 40
0
 40
0
 40
1
 40
1
 40
1
 40
1
 10
91.561657
 20
85.736392
 30
0.0
 10
89.646750
 20
86.691156
 30
0.0
 10
88.080000
 20
87.561125
 30
0.0
 10
88.080000
 20
87.669658
 30
0.0
  0
SPLINE
  5
2e2
100
AcDbEntity
  8
0
 62
7
100
AcDbSpline
 70
8
 71
3
 72
8
 73
4
 74
0
 40
0
 40
0
 40
0
 40
0
 40
1
 40
1
 40
1
 40
1
 10
88.080000
 20
87.669658
 30
0.0
 10
88.080000
 20
87.778190
 30
0.0
 10
88.544130
 20
88.072298
 30
0.0
 10
89.111407
 20
88.323230
 30
0.0
  0
SPLINE
  5
2e3
100
AcDbEntity
  8
0
 62
7
100
AcDbSpline
 70
8
 71
3
 72
8
 73
4
 74
0
 40
0
 40
0
 40
0
 40
0
 40
1
 40
1
 40
1
 40
1
 10
89.111407
 20
88.323230
 30
0.0
 10
89.678677
 20
88.574160
 30
0.0
 10
90.665527
 20
89.071620
 30
0.0
 10
91.304400
 20
89.428694
 30
0.0
  0
LWPOLYLINE
  5
2e4
100
AcDbEntity
  8
0
 62
7
100
AcDbPolyline
 90
7
 70
0
 10
106.267575
 20
87.228331
 30
0.0
 10
114.735150
 20
91.429423
 30
0.0
 10
114.243450
 20
92.393246
 30
0.0
 10
113.751742
 20
93.357070
 30
0.0
 10
104.397525
 20
88.678764
 30
0.0
 10
95.043315
 20
84.000458
 30
0.0
 10
91.561657
 20
85.736392
 30
0.0
  0
SPLINE
  5
2e5
100
AcDbEntity
  8
0
 62
7
100
AcDbSpline
 70
8
 71
3
 72
8
 73
4
 74
0
 40
0
 40
0
 40
0
 40
0
 40
1
 40
1
 40
1
 40
1
 10
79.520707
 20
90.640358
 30
0.0
 10
78.685035
 20
90.215659
 30
0.0
 10
78.490477
 20
90.021038
 30
0.0
 10
78.743092
 20
89.862484
 30
0.0
  0
SPLINE
  5
2e6
100
AcDbEntity
  8
0
 62
7
100
AcDbSpline
 70
8
 71
3
 72
8
 73
4
 74
0
 40
0
 40
0
 40
0
 40
0
 40
1
 40
1
 40
1
 40
1
 10
78.743092
 20
89.862484
 30
0.0
 10
78.928395
 20
89.746180
 30
0.0
 10
85.884000
 20
86.233740
 30
0.0
 10
94.200000
 20
82.057061
 30
0.0
  0
SPLINE
  5
2e7
100
AcDbEntity
  8
0
 62
7
100
AcDbSpline
 70
8
 71
3
 72
8
 73
4
 74
0
 40
0
 40
0
 40
0
 40
0
 40
1
 40
1
 40
1
 40
1
 10
94.200000
 20
82.057061
 30
0.0
 10
102.516000
 20
77.880382
 30
0.0
 10
109.333395
 20
74.448900
 30
0.0
 10
109.349775
 20
74.431548
 30
0.0
  0
SPLINE
  5
2e8
100
AcDbEntity
  8
0
 62
7
100
AcDbSpline
 70
8
 71
3
 72
8
 73
4
 74
0
 40
0
 40
0
 40
0
 40
0
 40
1
 40
1
 40
1
 40
1
 10
109.349775
 20
74.431548
 30
0.0
 10
109.366125
 20
74.414193
 30
0.0
 10
109.896577
 20
74.688976
 30
0.0
 10
110.528505
 20
75.042170
 30
0.0
  0
LWPOLYLINE
  5
2e9
100
AcDbEntity
  8
0
 62
7
100
AcDbPolyline
 90
9
 70
0
 10
91.304400
 20
89.428694
 30
0.0
 10
92.465992
 20
90.077920
 30
0.0
 10
91.355385
 20
90.642346
 30
0.0
 10
90.244777
 20
91.206772
 30
0.0
 10
87.842385
 20
90.001198
 30
0.0
 10
85.440000
 20
88.795625
 30
0.0
 10
83.037615
 20
90.001198
 30
0.0
 10
80.635222
 20
91.206772
 30
0.0
 10
79.520707
 20
90.640358
 30
0.0
  0
LWPOLYLINE
  5
2ea
100
AcDbEntity
  8
0
 62
7
100
AcDbPolyline
 90
1
 70
1
 10
110.528505
 20
75.042170
 30
0.0
  0
SPLINE
  5
2eb
100
AcDbEntity
  8
0
 62
7
100
AcDbSpline
 70
8
 71
3
 72
8
 73
4
 74
0
 40
0
 40
0
 40
0
 40
0
 40
1
 40
1
 40
1
 40
1
 10
61.496148
 20
76.767568
 30
0.0
 10
60.277268
 20
77.372856
 30
0.0
 10
59.280000
 20
77.950688
 30
0.0
 10
59.280000
 20
78.051636
 30
0.0
  0
SPLINE
  5
2ec
100
AcDbEntity
  8
0
 62
7
100
AcDbSpline
 70
8
 71
3
 72
8
 73
4
 74
0
 40
0
 40
0
 40
0
 40
0
 40
1
 40
1
 40
1
 40
1
 10
59.280000
 20
78.051636
 30
0.0
 10
59.280000
 20
78.152588
 30
0.0
 10
60.275746
 20
78.735276
 30
0.0
 10
61.492768
 20
79.346503
 30
0.0
  0
LWPOLYLINE
  5
2ed
100
AcDbEntity
  8
0
 62
7
100
AcDbPolyline
 90
3
 70
0
 10
62.705710
 20
75.153523
 30
0.0
 10
63.712298
 20
75.667046
 30
0.0
 10
61.496148
 20
76.767568
 30
0.0
  0
SPLINE
  5
2ee
100
AcDbEntity
  8
0
 62
7
100
AcDbSpline
 70
8
 71
3
 72
8
 73
4
 74
0
 40
0
 40
0
 40
0
 40
0
 40
1
 40
1
 40
1
 40
1
 10
88.896525
 20
99.074486
 30
0.0
 10
90.823433
 20
98.113740
 30
0.0
 10
92.400000
 20
97.267164
 30
0.0
 10
92.400000
 20
97.193208
 30
0.0
  0
SPLINE
  5
2ef
100
AcDbEntity
  8
0
 62
7
100
AcDbSpline
 70
8
 71
3
 72
8
 73
4
 74
0
 40
0
 40
0
 40
0
 40
0
 40
1
 40
1
 40
1
 40
1
 10
92.400000
 20
97.193208
 30
0.0
 10
92.400000
 20
97.119251
 30
0.0
 10
91.428000
 20
96.582308
 30
0.0
 10
90.240000
 20
96.000000
 30
0.0
  0
SPLINE
  5
2f0
100
AcDbEntity
  8
0
 62
7
100
AcDbSpline
 70
8
 71
3
 72
8
 73
4
 74
0
 40
0
 40
0
 40
0
 40
0
 40
1
 40
1
 40
1
 40
1
 10
90.240000
 20
96.000000
 30
0.0
 10
89.052000
 20
95.417693
 30
0.0
 10
88.080000
 20
94.876997
 30
0.0
 10
88.080000
 20
94.798452
 30
0.0
  0
SPLINE
  5
2f1
100
AcDbEntity
  8
0
 62
7
100
AcDbSpline
 70
8
 71
3
 72
8
 73
4
 74
0
 40
0
 40
0
 40
0
 40
0
 40
1
 40
1
 40
1
 40
1
 10
88.080000
 20
94.798452
 30
0.0
 10
88.080000
 20
94.719910
 30
0.0
 10
88.568423
 20
94.418357
 30
0.0
 10
89.165370
 20
94.128332
 30
0.0
  0
LWPOLYLINE
  5
2f2
100
AcDbEntity
  8
0
 62
7
100
AcDbPolyline
 90
11
 70
0
 10
61.492768
 20
79.346503
 30
0.0
 10
63.705538
 20
80.457820
 30
0.0
 10
62.575157
 20
81.032297
 30
0.0
 10
61.444776
 20
81.606773
 30
0.0
 10
59.043072
 20
80.401541
 30
0.0
 10
56.641368
 20
79.196312
 30
0.0
 10
52.988114
 20
81.025985
 30
0.0
 10
49.334861
 20
82.855660
 30
0.0
 10
67.363954
 20
91.838482
 30
0.0
 10
85.393043
 20
100.821300
 30
0.0
 10
88.896525
 20
99.074486
 30
0.0
  0
SPLINE
  5
2f3
100
AcDbEntity
  8
0
 62
7
100
AcDbSpline
 70
8
 71
3
 72
8
 73
4
 74
0
 40
0
 40
0
 40
0
 40
0
 40
1
 40
1
 40
1
 40
1
 10
100.931190
 20
94.136381
 30
0.0
 10
101.519040
 20
94.421978
 30
0.0
 10
102.000000
 20
94.715518
 30
0.0
 10
102.000000
 20
94.788691
 30
0.0
  0
SPLINE
  5
2f4
100
AcDbEntity
  8
0
 62
7
100
AcDbSpline
 70
8
 71
3
 72
8
 73
4
 74
0
 40
0
 40
0
 40
0
 40
0
 40
1
 40
1
 40
1
 40
1
 10
102.000000
 20
94.788691
 30
0.0
 10
102.000000
 20
94.861862
 30
0.0
 10
95.035313
 20
98.403578
 30
0.0
 10
86.522918
 20
102.659165
 30
0.0
  0
LWPOLYLINE
  5
2f5
100
AcDbEntity
  8
0
 62
7
100
AcDbPolyline
 90
7
 70
0
 10
89.165370
 20
94.128332
 30
0.0
 10
90.250748
 20
93.601018
 30
0.0
 10
92.652248
 20
94.806146
 30
0.0
 10
95.053755
 20
96.011278
 30
0.0
 10
97.458068
 20
94.814196
 30
0.0
 10
99.862388
 20
93.617114
 30
0.0
 10
100.931190
 20
94.136381
 30
0.0
  0
SPLINE
  5
2f6
100
AcDbEntity
  8
0
 62
7
100
AcDbSpline
 70
8
 71
3
 72
8
 73
4
 74
0
 40
0
 40
0
 40
0
 40
0
 40
1
 40
1
 40
1
 40
1
 10
69.962916
 20
109.870473
 30
0.0
 10
69.367312
 20
109.581107
 30
0.0
 10
68.880000
 20
109.280090
 30
0.0
 10
68.880000
 20
109.201547
 30
0.0
  0
SPLINE
  5
2f7
100
AcDbEntity
  8
0
 62
7
100
AcDbSpline
 70
8
 71
3
 72
8
 73
4
 74
0
 40
0
 40
0
 40
0
 40
0
 40
1
 40
1
 40
1
 40
1
 10
68.880000
 20
109.201547
 30
0.0
 10
68.880000
 20
109.123004
 30
0.0
 10
69.852000
 20
108.582308
 30
0.0
 10
71.040000
 20
108.000000
 30
0.0
  0
SPLINE
  5
2f8
100
AcDbEntity
  8
0
 62
7
100
AcDbSpline
 70
8
 71
3
 72
8
 73
4
 74
0
 40
0
 40
0
 40
0
 40
0
 40
1
 40
1
 40
1
 40
1
 10
71.040000
 20
108.000000
 30
0.0
 10
72.228000
 20
107.417693
 30
0.0
 10
73.200000
 20
106.877692
 30
0.0
 10
73.200000
 20
106.800000
 30
0.0
  0
SPLINE
  5
2f9
100
AcDbEntity
  8
0
 62
7
100
AcDbSpline
 70
8
 71
3
 72
8
 73
4
 74
0
 40
0
 40
0
 40
0
 40
0
 40
1
 40
1
 40
1
 40
1
 10
73.200000
 20
106.800000
 30
0.0
 10
73.200000
 20
106.722307
 30
0.0
 10
72.228000
 20
106.182307
 30
0.0
 10
71.040000
 20
105.600000
 30
0.0
  0
SPLINE
  5
2fa
100
AcDbEntity
  8
0
 62
7
100
AcDbSpline
 70
8
 71
3
 72
8
 73
4
 74
0
 40
0
 40
0
 40
0
 40
0
 40
1
 40
1
 40
1
 40
1
 10
71.040000
 20
105.600000
 30
0.0
 10
69.852000
 20
105.017692
 30
0.0
 10
68.880000
 20
104.476996
 30
0.0
 10
68.880000
 20
104.398452
 30
0.0
  0
SPLINE
  5
2fb
100
AcDbEntity
  8
0
 62
7
100
AcDbSpline
 70
8
 71
3
 72
8
 73
4
 74
0
 40
0
 40
0
 40
0
 40
0
 40
1
 40
1
 40
1
 40
1
 10
68.880000
 20
104.398452
 30
0.0
 10
68.880000
 20
104.319910
 30
0.0
 10
69.367672
 20
104.018720
 30
0.0
 10
69.963716
 20
103.729138
 30
0.0
  0
LWPOLYLINE
  5
2fc
100
AcDbEntity
  8
0
 62
7
100
AcDbPolyline
 90
3
 70
0
 10
86.522918
 20
102.659165
 30
0.0
 10
71.045830
 20
110.396594
 30
0.0
 10
69.962916
 20
109.870473
 30
0.0
  0
SPLINE
  5
2fd
100
AcDbEntity
  8
0
 62
7
100
AcDbSpline
 70
8
 71
3
 72
8
 73
4
 74
0
 40
0
 40
0
 40
0
 40
0
 40
1
 40
1
 40
1
 40
1
 10
79.306777
 20
103.869372
 30
0.0
 10
81.228052
 20
102.911438
 30
0.0
 10
82.800000
 20
102.071608
 30
0.0
 10
82.800000
 20
102.003086
 30
0.0
  0
SPLINE
  5
2fe
100
AcDbEntity
  8
0
 62
7
100
AcDbSpline
 70
8
 71
3
 72
8
 73
4
 74
0
 40
0
 40
0
 40
0
 40
0
 40
1
 40
1
 40
1
 40
1
 10
82.800000
 20
102.003086
 30
0.0
 10
82.800000
 20
101.934566
 30
0.0
 10
74.754379
 20
97.856122
 30
0.0
 10
64.920844
 20
92.939885
 30
0.0
  0
LWPOLYLINE
  5
2ff
100
AcDbEntity
  8
0
 62
7
100
AcDbPolyline
 90
5
 70
0
 10
69.963716
 20
103.729138
 30
0.0
 10
71.047430
 20
103.202628
 30
0.0
 10
73.430494
 20
104.406850
 30
0.0
 10
75.813555
 20
105.611074
 30
0.0
 10
79.306777
 20
103.869372
 30
0.0
  0
SPLINE
  5
300
100
AcDbEntity
  8
0
 62
7
100
AcDbSpline
 70
8
 71
3
 72
8
 73
4
 74
0
 40
0
 40
0
 40
0
 40
0
 40
1
 40
1
 40
1
 40
1
 10
43.560845
 20
85.736798
 30
0.0
 10
41.646380
 20
86.691338
 30
0.0
 10
40.080000
 20
87.561125
 30
0.0
 10
40.080000
 20
87.669658
 30
0.0
  0
SPLINE
  5
301
100
AcDbEntity
  8
0
 62
7
100
AcDbSpline
 70
8
 71
3
 72
8
 73
4
 74
0
 40
0
 40
0
 40
0
 40
0
 40
1
 40
1
 40
1
 40
1
 10
40.080000
 20
87.669658
 30
0.0
 10
40.080000
 20
87.778190
 30
0.0
 10
40.544131
 20
88.072298
 30
0.0
 10
41.111404
 20
88.323230
 30
0.0
  0
SPLINE
  5
302
100
AcDbEntity
  8
0
 62
7
100
AcDbSpline
 70
8
 71
3
 72
8
 73
4
 74
0
 40
0
 40
0
 40
0
 40
0
 40
1
 40
1
 40
1
 40
1
 10
41.111404
 20
88.323230
 30
0.0
 10
41.678676
 20
88.574160
 30
0.0
 10
42.665524
 20
89.071620
 30
0.0
 10
43.304400
 20
89.428694
 30
0.0
  0
LWPOLYLINE
  5
303
100
AcDbEntity
  8
0
 62
7
100
AcDbPolyline
 90
3
 70
0
 10
64.920844
 20
92.939885
 30
0.0
 10
47.041688
 20
84.001270
 30
0.0
 10
43.560845
 20
85.736798
 30
0.0
  0
SPLINE
  5
304
100
AcDbEntity
  8
0
 62
7
100
AcDbSpline
 70
8
 71
3
 72
8
 73
4
 74
0
 40
0
 40
0
 40
0
 40
0
 40
1
 40
1
 40
1
 40
1
 10
31.450066
 20
89.505038
 30
0.0
 10
36.155520
 20
87.061284
 30
0.0
 10
61.146490
 20
74.664792
 30
0.0
 10
61.389562
 20
74.653886
 30
0.0
  0
SPLINE
  5
305
100
AcDbEntity
  8
0
 62
7
100
AcDbSpline
 70
8
 71
3
 72
8
 73
4
 74
0
 40
0
 40
0
 40
0
 40
0
 40
1
 40
1
 40
1
 40
1
 10
61.389562
 20
74.653886
 30
0.0
 10
61.559820
 20
74.646251
 30
0.0
 10
62.152087
 20
74.871086
 30
0.0
 10
62.705710
 20
75.153523
 30
0.0
  0
LWPOLYLINE
  5
306
100
AcDbEntity
  8
0
 62
7
100
AcDbPolyline
 90
11
 70
0
 10
43.304400
 20
89.428694
 30
0.0
 10
44.465990
 20
90.077920
 30
0.0
 10
43.355383
 20
90.642346
 30
0.0
 10
42.244776
 20
91.206772
 30
0.0
 10
39.842388
 20
90.001198
 30
0.0
 10
37.440000
 20
88.795625
 30
0.0
 10
35.037612
 20
90.001198
 30
0.0
 10
32.635224
 20
91.206772
 30
0.0
 10
31.507680
 20
90.633739
 30
0.0
 10
30.380134
 20
90.060703
 30
0.0
 10
31.450066
 20
89.505038
 30
0.0
  0
SPLINE
  5
307
100
AcDbEntity
  8
0
 62
7
100
AcDbSpline
 70
8
 71
3
 72
8
 73
4
 74
0
 40
0
 40
0
 40
0
 40
0
 40
1
 40
1
 40
1
 40
1
 10
14.577559
 20
79.814978
 30
0.0
 10
15.137216
 20
80.070740
 30
0.0
 10
15.596216
 20
80.340996
 30
0.0
 10
15.597559
 20
80.415550
 30
0.0
  0
SPLINE
  5
308
100
AcDbEntity
  8
0
 62
7
100
AcDbSpline
 70
8
 71
3
 72
8
 73
4
 74
0
 40
0
 40
0
 40
0
 40
0
 40
1
 40
1
 40
1
 40
1
 10
15.597559
 20
80.415550
 30
0.0
 10
15.599809
 20
80.538924
 30
0.0
 10
14.039770
 20
81.360000
 30
0.0
 10
13.803139
 20
81.360000
 30
0.0
  0
SPLINE
  5
309
100
AcDbEntity
  8
0
 62
7
100
AcDbSpline
 70
8
 71
3
 72
8
 73
4
 74
0
 40
0
 40
0
 40
0
 40
0
 40
1
 40
1
 40
1
 40
1
 10
13.803139
 20
81.360000
 30
0.0
 10
13.699072
 20
81.360000
 30
0.0
 10
13.203706
 20
79.713718
 30
0.0
 10
13.201339
 20
79.360000
 30
0.0
  0
SPLINE
  5
30a
100
AcDbEntity
  8
0
 62
7
100
AcDbSpline
 70
8
 71
3
 72
8
 73
4
 74
0
 40
0
 40
0
 40
0
 40
0
 40
1
 40
1
 40
1
 40
1
 10
13.201339
 20
79.360000
 30
0.0
 10
13.200595
 20
79.250000
 30
0.0
 10
13.281000
 20
79.202740
 30
0.0
 10
13.380000
 20
79.254976
 30
0.0
  0
SPLINE
  5
30b
100
AcDbEntity
  8
0
 62
7
100
AcDbSpline
 70
8
 71
3
 72
8
 73
4
 74
0
 40
0
 40
0
 40
0
 40
0
 40
1
 40
1
 40
1
 40
1
 10
13.380000
 20
79.254976
 30
0.0
 10
13.479000
 20
79.307214
 30
0.0
 10
14.017901
 20
79.559215
 30
0.0
 10
14.577559
 20
79.814978
 30
0.0
  0
LWPOLYLINE
  5
30c
100
AcDbEntity
  8
0
 62
7
100
AcDbPolyline
 90
1
 70
1
 10
62.705710
 20
75.153523
 30
0.0
  0
SPLINE
  5
30d
100
AcDbEntity
  8
0
 62
7
100
AcDbSpline
 70
8
 71
3
 72
8
 73
4
 74
0
 40
0
 40
0
 40
0
 40
0
 40
1
 40
1
 40
1
 40
1
 10
118.653585
 20
80.100000
 30
0.0
 10
118.429913
 20
81.048982
 30
0.0
 10
118.232962
 20
81.179405
 30
0.0
 10
117.516510
 20
80.852966
 30
0.0
  0
SPLINE
  5
30e
100
AcDbEntity
  8
0
 62
7
100
AcDbSpline
 70
8
 71
3
 72
8
 73
4
 74
0
 40
0
 40
0
 40
0
 40
0
 40
1
 40
1
 40
1
 40
1
 10
117.516510
 20
80.852966
 30
0.0
 10
116.692853
 20
80.477683
 30
0.0
 10
116.714228
 20
80.329586
 30
0.0
 10
117.660000
 20
79.858891
 30
0.0
  0
SPLINE
  5
30f
100
AcDbEntity
  8
0
 62
7
100
AcDbSpline
 70
8
 71
3
 72
8
 73
4
 74
0
 40
0
 40
0
 40
0
 40
0
 40
1
 40
1
 40
1
 40
1
 10
117.660000
 20
79.858891
 30
0.0
 10
118.736775
 20
79.322998
 30
0.0
 10
118.831312
 20
79.345940
 30
0.0
 10
118.653585
 20
80.100000
 30
0.0
  0
LWPOLYLINE
  5
310
100
AcDbEntity
  8
0
 62
7
100
AcDbPolyline
 90
1
 70
1
 10
14.577559
 20
79.814978
 30
0.0
  0
LWPOLYLINE
  5
311
100
AcDbEntity
  8
0
 62
7
100
AcDbPolyline
 90
1
 70
1
 10
118.653585
 20
80.100000
 30
0.0
  0
SPLINE
  5
312
100
AcDbEntity
  8
0
 62
7
100
AcDbSpline
 70
8
 71
3
 72
8
 73
4
 74
0
 40
0
 40
0
 40
0
 40
0
 40
1
 40
1
 40
1
 40
1
 10
115.214812
 20
82.087558
 30
0.0
 10
115.716750
 20
82.343628
 30
0.0
 10
116.183115
 20
82.643234
 30
0.0
 10
116.251170
 20
82.753348
 30
0.0
  0
SPLINE
  5
313
100
AcDbEntity
  8
0
 62
7
100
AcDbSpline
 70
8
 71
3
 72
8
 73
4
 74
0
 40
0
 40
0
 40
0
 40
0
 40
1
 40
1
 40
1
 40
1
 10
116.251170
 20
82.753348
 30
0.0
 10
116.319195
 20
82.863466
 30
0.0
 10
115.408552
 20
83.427226
 30
0.0
 10
114.227452
 20
84.006151
 30
0.0
  0
SPLINE
  5
314
100
AcDbEntity
  8
0
 62
7
100
AcDbSpline
 70
8
 71
3
 72
8
 73
4
 74
0
 40
0
 40
0
 40
0
 40
0
 40
1
 40
1
 40
1
 40
1
 10
114.227452
 20
84.006151
 30
0.0
 10
113.046352
 20
84.585074
 30
0.0
 10
112.080000
 20
85.132516
 30
0.0
 10
112.080000
 20
85.222684
 30
0.0
  0
SPLINE
  5
315
100
AcDbEntity
  8
0
 62
7
100
AcDbSpline
 70
8
 71
3
 72
8
 73
4
 74
0
 40
0
 40
0
 40
0
 40
0
 40
1
 40
1
 40
1
 40
1
 10
112.080000
 20
85.222684
 30
0.0
 10
112.080000
 20
85.312852
 30
0.0
 10
113.052000
 20
85.848547
 30
0.0
 10
114.240000
 20
86.413114
 30
0.0
  0
SPLINE
  5
316
100
AcDbEntity
  8
0
 62
7
100
AcDbSpline
 70
8
 71
3
 72
8
 73
4
 74
0
 40
0
 40
0
 40
0
 40
0
 40
1
 40
1
 40
1
 40
1
 10
114.240000
 20
86.413114
 30
0.0
 10
115.428000
 20
86.977680
 30
0.0
 10
116.400000
 20
87.473503
 30
0.0
 10
116.400000
 20
87.514942
 30
0.0
  0
SPLINE
  5
317
100
AcDbEntity
  8
0
 62
7
100
AcDbSpline
 70
8
 71
3
 72
8
 73
4
 74
0
 40
0
 40
0
 40
0
 40
0
 40
1
 40
1
 40
1
 40
1
 10
116.400000
 20
87.514942
 30
0.0
 10
116.400000
 20
87.556379
 30
0.0
 10
116.228310
 20
88.019376
 30
0.0
 10
116.018475
 20
88.543819
 30
0.0
  0
LWPOLYLINE
  5
318
100
AcDbEntity
  8
0
 62
7
100
AcDbPolyline
 90
5
 70
0
 10
107.032553
 20
82.831140
 30
0.0
 10
109.487783
 20
84.062278
 30
0.0
 10
111.894990
 20
82.842124
 30
0.0
 10
114.302190
 20
81.621972
 30
0.0
 10
115.214812
 20
82.087558
 30
0.0
  0
SPLINE
  5
319
100
AcDbEntity
  8
0
 62
7
100
AcDbSpline
 70
8
 71
3
 72
8
 73
4
 74
0
 40
0
 40
0
 40
0
 40
0
 40
1
 40
1
 40
1
 40
1
 10
109.065120
 20
86.214026
 30
0.0
 10
105.450622
 20
84.408199
 30
0.0
 10
102.582675
 20
82.841326
 30
0.0
 10
102.691912
 20
82.732087
 30
0.0
  0
SPLINE
  5
31a
100
AcDbEntity
  8
0
 62
7
100
AcDbSpline
 70
8
 71
3
 72
8
 73
4
 74
0
 40
0
 40
0
 40
0
 40
0
 40
1
 40
1
 40
1
 40
1
 10
102.691912
 20
82.732087
 30
0.0
 10
102.801150
 20
82.622846
 30
0.0
 10
103.257157
 20
82.336675
 30
0.0
 10
103.705267
 20
82.096144
 30
0.0
  0
SPLINE
  5
31b
100
AcDbEntity
  8
0
 62
7
100
AcDbSpline
 70
8
 71
3
 72
8
 73
4
 74
0
 40
0
 40
0
 40
0
 40
0
 40
1
 40
1
 40
1
 40
1
 10
103.705267
 20
82.096144
 30
0.0
 10
104.153370
 20
81.855616
 30
0.0
 10
104.532900
 20
81.645586
 30
0.0
 10
104.548665
 20
81.629410
 30
0.0
  0
SPLINE
  5
31c
100
AcDbEntity
  8
0
 62
7
100
AcDbSpline
 70
8
 71
3
 72
8
 73
4
 74
0
 40
0
 40
0
 40
0
 40
0
 40
1
 40
1
 40
1
 40
1
 10
104.548665
 20
81.629410
 30
0.0
 10
104.564415
 20
81.613232
 30
0.0
 10
105.682177
 20
82.154014
 30
0.0
 10
107.032552
 20
82.831140
 30
0.0
  0
LWPOLYLINE
  5
31d
100
AcDbEntity
  8
0
 62
7
100
AcDbPolyline
 90
3
 70
0
 10
116.018475
 20
88.543819
 30
0.0
 10
115.636942
 20
89.497351
 30
0.0
 10
109.065120
 20
86.214026
 30
0.0
  0
SPLINE
  5
31e
100
AcDbEntity
  8
0
 62
7
100
AcDbSpline
 70
8
 71
3
 72
8
 73
4
 74
0
 40
0
 40
0
 40
0
 40
0
 40
1
 40
1
 40
1
 40
1
 10
62.541742
 20
94.200470
 30
0.0
 10
70.896524
 20
98.358730
 30
0.0
 10
77.787165
 20
101.849796
 30
0.0
 10
77.854290
 20
101.958398
 30
0.0
  0
SPLINE
  5
31f
100
AcDbEntity
  8
0
 62
7
100
AcDbSpline
 70
8
 71
3
 72
8
 73
4
 74
0
 40
0
 40
0
 40
0
 40
0
 40
1
 40
1
 40
1
 40
1
 10
77.854290
 20
101.958398
 30
0.0
 10
77.921415
 20
102.066998
 30
0.0
 10
77.493233
 20
102.390559
 30
0.0
 10
76.902787
 20
102.677419
 30
0.0
  0
LWPOLYLINE
  5
320
100
AcDbEntity
  8
0
 62
7
100
AcDbPolyline
 90
1
 70
1
 10
107.032552
 20
82.831140
 30
0.0
  0
SPLINE
  5
321
100
AcDbEntity
  8
0
 62
7
100
AcDbSpline
 70
8
 71
3
 72
8
 73
4
 74
0
 40
0
 40
0
 40
0
 40
0
 40
1
 40
1
 40
1
 40
1
 10
65.172718
 20
102.675235
 30
0.0
 10
64.459654
 20
102.328802
 30
0.0
 10
64.167484
 20
102.063770
 30
0.0
 10
64.309716
 20
101.892392
 30
0.0
  0
SPLINE
  5
322
100
AcDbEntity
  8
0
 62
7
100
AcDbSpline
 70
8
 71
3
 72
8
 73
4
 74
0
 40
0
 40
0
 40
0
 40
0
 40
1
 40
1
 40
1
 40
1
 10
64.309716
 20
101.892392
 30
0.0
 10
64.427983
 20
101.749888
 30
0.0
 10
65.396678
 20
101.208180
 30
0.0
 10
66.462374
 20
100.688594
 30
0.0
  0
SPLINE
  5
323
100
AcDbEntity
  8
0
 62
7
100
AcDbSpline
 70
8
 71
3
 72
8
 73
4
 74
0
 40
0
 40
0
 40
0
 40
0
 40
1
 40
1
 40
1
 40
1
 10
66.462374
 20
100.688594
 30
0.0
 10
67.528068
 20
100.169009
 30
0.0
 10
68.400000
 20
99.682790
 30
0.0
 10
68.400000
 20
99.608110
 30
0.0
  0
SPLINE
  5
324
100
AcDbEntity
  8
0
 62
7
100
AcDbSpline
 70
8
 71
3
 72
8
 73
4
 74
0
 40
0
 40
0
 40
0
 40
0
 40
1
 40
1
 40
1
 40
1
 10
68.400000
 20
99.608110
 30
0.0
 10
68.400000
 20
99.533425
 30
0.0
 10
66.833347
 20
98.691202
 30
0.0
 10
64.918548
 20
97.736496
 30
0.0
  0
LWPOLYLINE
  5
325
100
AcDbEntity
  8
0
 62
7
100
AcDbPolyline
 90
7
 70
0
 10
76.902787
 20
102.677419
 30
0.0
 10
75.829252
 20
103.198982
 30
0.0
 10
73.434626
 20
101.997302
 30
0.0
 10
71.040000
 20
100.795625
 30
0.0
 10
68.645374
 20
101.997302
 30
0.0
 10
66.250747
 20
103.198982
 30
0.0
 10
65.172718
 20
102.675235
 30
0.0
  0
SPLINE
  5
326
100
AcDbEntity
  8
0
 62
7
100
AcDbSpline
 70
8
 71
3
 72
8
 73
4
 74
0
 40
0
 40
0
 40
0
 40
0
 40
1
 40
1
 40
1
 40
1
 10
47.039335
 20
103.200332
 30
0.0
 10
39.120566
 20
107.160148
 30
0.0
 10
32.520478
 20
110.400000
 30
0.0
 10
32.372470
 20
110.400000
 30
0.0
  0
SPLINE
  5
327
100
AcDbEntity
  8
0
 62
7
100
AcDbSpline
 70
8
 71
3
 72
8
 73
4
 74
0
 40
0
 40
0
 40
0
 40
0
 40
1
 40
1
 40
1
 40
1
 10
32.372470
 20
110.400000
 30
0.0
 10
32.224464
 20
110.400000
 30
0.0
 10
31.754779
 20
110.093936
 30
0.0
 10
31.328729
 20
109.719859
 30
0.0
  0
LWPOLYLINE
  5
328
100
AcDbEntity
  8
0
 62
7
100
AcDbPolyline
 90
3
 70
0
 10
64.918548
 20
97.736496
 30
0.0
 10
61.437098
 20
96.000664
 30
0.0
 10
47.039335
 20
103.200332
 30
0.0
  0
SPLINE
  5
329
100
AcDbEntity
  8
0
 62
7
100
AcDbSpline
 70
8
 71
3
 72
8
 73
4
 74
0
 40
0
 40
0
 40
0
 40
0
 40
1
 40
1
 40
1
 40
1
 10
44.677046
 20
101.981486
 30
0.0
 10
52.444670
 20
98.099458
 30
0.0
 10
58.800000
 20
94.866794
 30
0.0
 10
58.800000
 20
94.797790
 30
0.0
  0
SPLINE
  5
32a
100
AcDbEntity
  8
0
 62
7
100
AcDbSpline
 70
8
 71
3
 72
8
 73
4
 74
0
 40
0
 40
0
 40
0
 40
0
 40
1
 40
1
 40
1
 40
1
 10
58.800000
 20
94.797790
 30
0.0
 10
58.800000
 20
94.728782
 30
0.0
 10
57.232541
 20
93.890800
 30
0.0
 10
55.316758
 20
92.935603
 30
0.0
  0
LWPOLYLINE
  5
32b
100
AcDbEntity
  8
0
 62
7
100
AcDbPolyline
 90
3
 70
0
 10
31.328729
 20
109.719859
 30
0.0
 10
30.554090
 20
109.039717
 30
0.0
 10
44.677046
 20
101.981486
 30
0.0
  0
SPLINE
  5
32c
100
AcDbEntity
  8
0
 62
7
100
AcDbSpline
 70
8
 71
3
 72
8
 73
4
 74
0
 40
0
 40
0
 40
0
 40
0
 40
1
 40
1
 40
1
 40
1
 10
45.977213
 20
93.077420
 30
0.0
 10
45.386767
 20
92.790560
 30
0.0
 10
44.962280
 20
92.461034
 30
0.0
 10
45.033902
 20
92.345144
 30
0.0
  0
SPLINE
  5
32d
100
AcDbEntity
  8
0
 62
7
100
AcDbSpline
 70
8
 71
3
 72
8
 73
4
 74
0
 40
0
 40
0
 40
0
 40
0
 40
1
 40
1
 40
1
 40
1
 10
45.033902
 20
92.345144
 30
0.0
 10
45.105527
 20
92.229252
 30
0.0
 10
46.072202
 20
91.690528
 30
0.0
 10
47.182066
 20
91.147985
 30
0.0
  0
SPLINE
  5
32e
100
AcDbEntity
  8
0
 62
7
100
AcDbSpline
 70
8
 71
3
 72
8
 73
4
 74
0
 40
0
 40
0
 40
0
 40
0
 40
1
 40
1
 40
1
 40
1
 10
47.182066
 20
91.147985
 30
0.0
 10
48.291929
 20
90.605438
 30
0.0
 10
49.200000
 20
90.095512
 30
0.0
 10
49.200000
 20
90.014815
 30
0.0
  0
SPLINE
  5
32f
100
AcDbEntity
  8
0
 62
7
100
AcDbSpline
 70
8
 71
3
 72
8
 73
4
 74
0
 40
0
 40
0
 40
0
 40
0
 40
1
 40
1
 40
1
 40
1
 10
49.200000
 20
90.014815
 30
0.0
 10
49.200000
 20
89.934118
 30
0.0
 10
48.203186
 20
89.373082
 30
0.0
 10
46.984858
 20
88.768068
 30
0.0
  0
LWPOLYLINE
  5
330
100
AcDbEntity
  8
0
 62
7
100
AcDbPolyline
 90
5
 70
0
 10
55.316758
 20
92.935603
 30
0.0
 10
51.833516
 20
91.198880
 30
0.0
 10
49.442132
 20
92.398930
 30
0.0
 10
47.050747
 20
93.598982
 30
0.0
 10
45.977213
 20
93.077420
 30
0.0
  0
SPLINE
  5
331
100
AcDbEntity
  8
0
 62
7
100
AcDbSpline
 70
8
 71
3
 72
8
 73
4
 74
0
 40
0
 40
0
 40
0
 40
0
 40
1
 40
1
 40
1
 40
1
 10
45.724858
 20
87.164630
 30
0.0
 10
46.250186
 20
86.887752
 30
0.0
 10
46.831027
 20
86.656440
 30
0.0
 10
47.015614
 20
86.650608
 30
0.0
  0
SPLINE
  5
332
100
AcDbEntity
  8
0
 62
7
100
AcDbSpline
 70
8
 71
3
 72
8
 73
4
 74
0
 40
0
 40
0
 40
0
 40
0
 40
1
 40
1
 40
1
 40
1
 10
47.015614
 20
86.650608
 30
0.0
 10
47.200202
 20
86.644758
 30
0.0
 10
54.186960
 20
90.042211
 30
0.0
 10
62.541742
 20
94.200470
 30
0.0
  0
LWPOLYLINE
  5
333
100
AcDbEntity
  8
0
 62
7
100
AcDbPolyline
 90
3
 70
0
 10
46.984858
 20
88.768068
 30
0.0
 10
44.769718
 20
87.668045
 30
0.0
 10
45.724858
 20
87.164630
 30
0.0
  0
SPLINE
  5
334
100
AcDbEntity
  8
0
 62
7
100
AcDbSpline
 70
8
 71
3
 72
8
 73
4
 74
0
 40
0
 40
0
 40
0
 40
0
 40
1
 40
1
 40
1
 40
1
 10
103.934310
 20
90.864590
 30
0.0
 10
108.612443
 20
93.188114
 30
0.0
 10
112.486357
 20
95.133470
 30
0.0
 10
112.543013
 20
95.187602
 30
0.0
  0
SPLINE
  5
335
100
AcDbEntity
  8
0
 62
7
100
AcDbSpline
 70
8
 71
3
 72
8
 73
4
 74
0
 40
0
 40
0
 40
0
 40
0
 40
1
 40
1
 40
1
 40
1
 10
112.543013
 20
95.187602
 30
0.0
 10
112.719810
 20
95.356520
 30
0.0
 10
111.861533
 20
96.960000
 30
0.0
 10
111.594323
 20
96.960000
 30
0.0
  0
SPLINE
  5
336
100
AcDbEntity
  8
0
 62
7
100
AcDbSpline
 70
8
 71
3
 72
8
 73
4
 74
0
 40
0
 40
0
 40
0
 40
0
 40
1
 40
1
 40
1
 40
1
 10
111.594323
 20
96.960000
 30
0.0
 10
111.454928
 20
96.960000
 30
0.0
 10
110.915445
 20
96.742961
 30
0.0
 10
110.395478
 20
96.477694
 30
0.0
  0
LWPOLYLINE
  5
337
100
AcDbEntity
  8
0
 62
7
100
AcDbPolyline
 90
1
 70
1
 10
62.541742
 20
94.200470
 30
0.0
  0
SPLINE
  5
338
100
AcDbEntity
  8
0
 62
7
100
AcDbSpline
 70
8
 71
3
 72
8
 73
4
 74
0
 40
0
 40
0
 40
0
 40
0
 40
1
 40
1
 40
1
 40
1
 10
91.565040
 20
104.936942
 30
0.0
 10
81.728265
 20
109.854799
 30
0.0
 10
73.680000
 20
113.934562
 30
0.0
 10
73.680000
 20
114.003086
 30
0.0
  0
SPLINE
  5
339
100
AcDbEntity
  8
0
 62
7
100
AcDbSpline
 70
8
 71
3
 72
8
 73
4
 74
0
 40
0
 40
0
 40
0
 40
0
 40
1
 40
1
 40
1
 40
1
 10
73.680000
 20
114.003086
 30
0.0
 10
73.680000
 20
114.071606
 30
0.0
 10
75.247462
 20
114.909199
 30
0.0
 10
77.163240
 20
115.864398
 30
0.0
  0
LWPOLYLINE
  5
33a
100
AcDbEntity
  8
0
 62
7
100
AcDbPolyline
 90
3
 70
0
 10
110.395478
 20
96.477694
 30
0.0
 10
109.450080
 20
95.995387
 30
0.0
 10
91.565040
 20
104.936942
 30
0.0
  0
SPLINE
  5
33b
100
AcDbEntity
  8
0
 62
7
100
AcDbSpline
 70
8
 71
3
 72
8
 73
4
 74
0
 40
0
 40
0
 40
0
 40
0
 40
1
 40
1
 40
1
 40
1
 10
86.514630
 20
115.728332
 30
0.0
 10
87.111577
 20
116.018356
 30
0.0
 10
87.600000
 20
116.319910
 30
0.0
 10
87.600000
 20
116.398453
 30
0.0
  0
SPLINE
  5
33c
100
AcDbEntity
  8
0
 62
7
100
AcDbSpline
 70
8
 71
3
 72
8
 73
4
 74
0
 40
0
 40
0
 40
0
 40
0
 40
1
 40
1
 40
1
 40
1
 10
87.600000
 20
116.398453
 30
0.0
 10
87.600000
 20
116.476996
 30
0.0
 10
86.628000
 20
117.017692
 30
0.0
 10
85.440000
 20
117.600000
 30
0.0
  0
SPLINE
  5
33d
100
AcDbEntity
  8
0
 62
7
100
AcDbSpline
 70
8
 71
3
 72
8
 73
4
 74
0
 40
0
 40
0
 40
0
 40
0
 40
1
 40
1
 40
1
 40
1
 10
85.440000
 20
117.600000
 30
0.0
 10
83.447730
 20
118.576526
 30
0.0
 10
82.845217
 20
119.040000
 30
0.0
 10
83.568000
 20
119.040000
 30
0.0
  0
SPLINE
  5
33e
100
AcDbEntity
  8
0
 62
7
100
AcDbSpline
 70
8
 71
3
 72
8
 73
4
 74
0
 40
0
 40
0
 40
0
 40
0
 40
1
 40
1
 40
1
 40
1
 10
83.568000
 20
119.040000
 30
0.0
 10
84.100860
 20
119.040000
 30
0.0
 10
83.424270
 20
119.448164
 30
0.0
 10
82.243012
 20
119.839322
 30
0.0
  0
LWPOLYLINE
  5
33f
100
AcDbEntity
  8
0
 62
7
100
AcDbPolyline
 90
5
 70
0
 10
77.163240
 20
115.864398
 30
0.0
 10
80.646487
 20
117.601122
 30
0.0
 10
83.037870
 20
116.401070
 30
0.0
 10
85.429252
 20
115.201017
 30
0.0
 10
86.514630
 20
115.728332
 30
0.0
  0
SPLINE
  5
340
100
AcDbEntity
  8
0
 62
7
100
AcDbSpline
 70
8
 71
3
 72
8
 73
4
 74
0
 40
0
 40
0
 40
0
 40
0
 40
1
 40
1
 40
1
 40
1
 10
67.783010
 20
113.572228
 30
0.0
 10
60.466354
 20
109.914611
 30
0.0
 10
54.480000
 20
106.862080
 30
0.0
 10
54.480000
 20
106.788830
 30
0.0
  0
SPLINE
  5
341
100
AcDbEntity
  8
0
 62
7
100
AcDbSpline
 70
8
 71
3
 72
8
 73
4
 74
0
 40
0
 40
0
 40
0
 40
0
 40
1
 40
1
 40
1
 40
1
 10
54.480000
 20
106.788830
 30
0.0
 10
54.480000
 20
106.715578
 30
0.0
 10
54.968419
 20
106.418356
 30
0.0
 10
55.565374
 20
106.128332
 30
0.0
  0
LWPOLYLINE
  5
342
100
AcDbEntity
  8
0
 62
7
100
AcDbPolyline
 90
3
 70
0
 10
82.243012
 20
119.839322
 30
0.0
 10
81.086017
 20
120.222443
 30
0.0
 10
67.783010
 20
113.572228
 30
0.0
  0
SPLINE
  5
343
100
AcDbEntity
  8
0
 62
7
100
AcDbSpline
 70
8
 71
3
 72
8
 73
4
 74
0
 40
0
 40
0
 40
0
 40
0
 40
1
 40
1
 40
1
 40
1
 10
67.314626
 20
106.128332
 30
0.0
 10
67.911580
 20
106.418357
 30
0.0
 10
68.400000
 20
106.719910
 30
0.0
 10
68.400000
 20
106.798452
 30
0.0
  0
SPLINE
  5
344
100
AcDbEntity
  8
0
 62
7
100
AcDbSpline
 70
8
 71
3
 72
8
 73
4
 74
0
 40
0
 40
0
 40
0
 40
0
 40
1
 40
1
 40
1
 40
1
 10
68.400000
 20
106.798452
 30
0.0
 10
68.400000
 20
106.876997
 30
0.0
 10
67.428000
 20
107.417693
 30
0.0
 10
66.240000
 20
108.000000
 30
0.0
  0
SPLINE
  5
345
100
AcDbEntity
  8
0
 62
7
100
AcDbSpline
 70
8
 71
3
 72
8
 73
4
 74
0
 40
0
 40
0
 40
0
 40
0
 40
1
 40
1
 40
1
 40
1
 10
66.240000
 20
108.000000
 30
0.0
 10
65.052000
 20
108.582308
 30
0.0
 10
64.080000
 20
109.119251
 30
0.0
 10
64.080000
 20
109.193207
 30
0.0
  0
SPLINE
  5
346
100
AcDbEntity
  8
0
 62
7
100
AcDbSpline
 70
8
 71
3
 72
8
 73
4
 74
0
 40
0
 40
0
 40
0
 40
0
 40
1
 40
1
 40
1
 40
1
 10
64.080000
 20
109.193207
 30
0.0
 10
64.080000
 20
109.267165
 30
0.0
 10
65.645376
 20
110.108161
 30
0.0
 10
67.558612
 20
111.062089
 30
0.0
  0
LWPOLYLINE
  5
347
100
AcDbEntity
  8
0
 62
7
100
AcDbPolyline
 90
7
 70
0
 10
55.565374
 20
106.128332
 30
0.0
 10
56.650747
 20
105.601018
 30
0.0
 10
59.045374
 20
106.802698
 30
0.0
 10
61.440000
 20
108.004376
 30
0.0
 10
63.834626
 20
106.802698
 30
0.0
 10
66.229253
 20
105.601018
 30
0.0
 10
67.314626
 20
106.128332
 30
0.0
  0
SPLINE
  5
348
100
AcDbEntity
  8
0
 62
7
100
AcDbSpline
 70
8
 71
3
 72
8
 73
4
 74
0
 40
0
 40
0
 40
0
 40
0
 40
1
 40
1
 40
1
 40
1
 10
88.858612
 20
103.896648
 30
0.0
 10
98.660377
 20
99.001726
 30
0.0
 10
106.707495
 20
94.924032
 30
0.0
 10
106.741095
 20
94.835104
 30
0.0
  0
SPLINE
  5
349
100
AcDbEntity
  8
0
 62
7
100
AcDbSpline
 70
8
 71
3
 72
8
 73
4
 74
0
 40
0
 40
0
 40
0
 40
0
 40
1
 40
1
 40
1
 40
1
 10
106.741095
 20
94.835104
 30
0.0
 10
106.774695
 20
94.746178
 30
0.0
 10
105.234240
 20
93.891648
 30
0.0
 10
103.317855
 20
92.936148
 30
0.0
  0
LWPOLYLINE
  5
34a
100
AcDbEntity
  8
0
 62
7
100
AcDbPolyline
 90
3
 70
0
 10
67.558612
 20
111.062089
 30
0.0
 10
71.037226
 20
112.796505
 30
0.0
 10
88.858612
 20
103.896648
 30
0.0
  0
SPLINE
  5
34b
100
AcDbEntity
  8
0
 62
7
100
AcDbSpline
 70
8
 71
3
 72
8
 73
4
 74
0
 40
0
 40
0
 40
0
 40
0
 40
1
 40
1
 40
1
 40
1
 10
93.975600
 20
91.828694
 30
0.0
 10
94.614472
 20
91.471620
 30
0.0
 10
95.601322
 20
90.974160
 30
0.0
 10
96.168592
 20
90.723230
 30
0.0
  0
SPLINE
  5
34c
100
AcDbEntity
  8
0
 62
7
100
AcDbSpline
 70
8
 71
3
 72
8
 73
4
 74
0
 40
0
 40
0
 40
0
 40
0
 40
1
 40
1
 40
1
 40
1
 10
96.168592
 20
90.723230
 30
0.0
 10
96.735870
 20
90.472298
 30
0.0
 10
97.200000
 20
90.177238
 30
0.0
 10
97.200000
 20
90.067540
 30
0.0
  0
SPLINE
  5
34d
100
AcDbEntity
  8
0
 62
7
100
AcDbSpline
 70
8
 71
3
 72
8
 73
4
 74
0
 40
0
 40
0
 40
0
 40
0
 40
1
 40
1
 40
1
 40
1
 10
97.200000
 20
90.067540
 30
0.0
 10
97.200000
 20
89.957844
 30
0.0
 10
96.203190
 20
89.373082
 30
0.0
 10
94.984860
 20
88.768068
 30
0.0
  0
LWPOLYLINE
  5
34e
100
AcDbEntity
  8
0
 62
7
100
AcDbPolyline
 90
7
 70
0
 10
103.317855
 20
92.936148
 30
0.0
 10
99.833512
 20
91.198880
 30
0.0
 10
97.434367
 20
92.402824
 30
0.0
 10
95.035222
 20
93.606772
 30
0.0
 10
93.924615
 20
93.042346
 30
0.0
 10
92.814007
 20
92.477920
 30
0.0
 10
93.975600
 20
91.828694
 30
0.0
  0
SPLINE
  5
34f
100
AcDbEntity
  8
0
 62
7
100
AcDbSpline
 70
8
 71
3
 72
8
 73
4
 74
0
 40
0
 40
0
 40
0
 40
0
 40
1
 40
1
 40
1
 40
1
 10
93.724860
 20
87.164630
 30
0.0
 10
94.250190
 20
86.887752
 30
0.0
 10
94.848442
 20
86.656440
 30
0.0
 10
95.054310
 20
86.650608
 30
0.0
  0
SPLINE
  5
350
100
AcDbEntity
  8
0
 62
7
100
AcDbSpline
 70
8
 71
3
 72
8
 73
4
 74
0
 40
0
 40
0
 40
0
 40
0
 40
1
 40
1
 40
1
 40
1
 10
95.054310
 20
86.650608
 30
0.0
 10
95.260185
 20
86.644758
 30
0.0
 10
99.256185
 20
88.541066
 30
0.0
 10
103.934310
 20
90.864590
 30
0.0
  0
LWPOLYLINE
  5
351
100
AcDbEntity
  8
0
 62
7
100
AcDbPolyline
 90
3
 70
0
 10
94.984860
 20
88.768068
 30
0.0
 10
92.769720
 20
87.668044
 30
0.0
 10
93.724860
 20
87.164630
 30
0.0
  0
SPLINE
  5
352
100
AcDbEntity
  8
0
 62
7
100
AcDbSpline
 70
8
 71
3
 72
8
 73
4
 74
0
 40
0
 40
0
 40
0
 40
0
 40
1
 40
1
 40
1
 40
1
 10
40.918397
 20
99.063581
 30
0.0
 10
42.833278
 20
98.108832
 30
0.0
 10
44.400000
 20
97.267164
 30
0.0
 10
44.400000
 20
97.193208
 30
0.0
  0
SPLINE
  5
353
100
AcDbEntity
  8
0
 62
7
100
AcDbSpline
 70
8
 71
3
 72
8
 73
4
 74
0
 40
0
 40
0
 40
0
 40
0
 40
1
 40
1
 40
1
 40
1
 10
44.400000
 20
97.193208
 30
0.0
 10
44.400000
 20
97.119252
 30
0.0
 10
43.428000
 20
96.582307
 30
0.0
 10
42.240000
 20
96.000000
 30
0.0
  0
SPLINE
  5
354
100
AcDbEntity
  8
0
 62
7
100
AcDbSpline
 70
8
 71
3
 72
8
 73
4
 74
0
 40
0
 40
0
 40
0
 40
0
 40
1
 40
1
 40
1
 40
1
 10
42.240000
 20
96.000000
 30
0.0
 10
41.052000
 20
95.417693
 30
0.0
 10
40.080338
 20
94.882476
 30
0.0
 10
40.080751
 20
94.810630
 30
0.0
  0
SPLINE
  5
355
100
AcDbEntity
  8
0
 62
7
100
AcDbSpline
 70
8
 71
3
 72
8
 73
4
 74
0
 40
0
 40
0
 40
0
 40
0
 40
1
 40
1
 40
1
 40
1
 10
40.080751
 20
94.810630
 30
0.0
 10
40.081231
 20
94.738787
 30
0.0
 10
40.562074
 20
94.445923
 30
0.0
 10
41.149438
 20
94.159829
 30
0.0
  0
LWPOLYLINE
  5
356
100
AcDbEntity
  8
0
 62
7
100
AcDbPolyline
 90
1
 70
1
 10
103.934310
 20
90.864590
 30
0.0
  0
SPLINE
  5
357
100
AcDbEntity
  8
0
 62
7
100
AcDbSpline
 70
8
 71
3
 72
8
 73
4
 74
0
 40
0
 40
0
 40
0
 40
0
 40
1
 40
1
 40
1
 40
1
 10
52.924618
 20
94.183188
 30
0.0
 10
53.504018
 20
94.456435
 30
0.0
 10
53.983008
 20
94.734480
 30
0.0
 10
53.989036
 20
94.801066
 30
0.0
  0
SPLINE
  5
358
100
AcDbEntity
  8
0
 62
7
100
AcDbSpline
 70
8
 71
3
 72
8
 73
4
 74
0
 40
0
 40
0
 40
0
 40
0
 40
1
 40
1
 40
1
 40
1
 10
53.989036
 20
94.801066
 30
0.0
 10
53.995036
 20
94.867651
 30
0.0
 10
48.345516
 20
97.748758
 30
0.0
 10
41.434481
 20
101.203526
 30
0.0
  0
LWPOLYLINE
  5
359
100
AcDbEntity
  8
0
 62
7
100
AcDbPolyline
 90
7
 70
0
 10
41.149438
 20
94.159829
 30
0.0
 10
42.217372
 20
93.639658
 30
0.0
 10
44.602142
 20
94.816008
 30
0.0
 10
46.986910
 20
95.992358
 30
0.0
 10
49.429037
 20
94.839367
 30
0.0
 10
51.871162
 20
93.686376
 30
0.0
 10
52.924618
 20
94.183188
 30
0.0
  0
SPLINE
  5
35a
100
AcDbEntity
  8
0
 62
7
100
AcDbSpline
 70
8
 71
3
 72
8
 73
4
 74
0
 40
0
 40
0
 40
0
 40
0
 40
1
 40
1
 40
1
 40
1
 10
27.574481
 20
106.156392
 30
0.0
 10
26.426393
 20
104.978100
 30
0.0
 10
26.367406
 20
104.871799
 30
0.0
 10
27.052894
 20
105.216418
 30
0.0
  0
LWPOLYLINE
  5
35b
100
AcDbEntity
  8
0
 62
7
100
AcDbPolyline
 90
3
 70
0
 10
41.434481
 20
101.203526
 30
0.0
 10
28.868964
 20
107.484924
 30
0.0
 10
27.574481
 20
106.156392
 30
0.0
  0
SPLINE
  5
35c
100
AcDbEntity
  8
0
 62
7
100
AcDbSpline
 70
8
 71
3
 72
8
 73
4
 74
0
 40
0
 40
0
 40
0
 40
0
 40
1
 40
1
 40
1
 40
1
 10
31.312894
 20
103.866324
 30
0.0
 10
33.230801
 20
102.910066
 30
0.0
 10
34.800000
 20
102.070678
 30
0.0
 10
34.800000
 20
102.001013
 30
0.0
  0
SPLINE
  5
35d
100
AcDbEntity
  8
0
 62
7
100
AcDbSpline
 70
8
 71
3
 72
8
 73
4
 74
0
 40
0
 40
0
 40
0
 40
0
 40
1
 40
1
 40
1
 40
1
 10
34.800000
 20
102.001013
 30
0.0
 10
34.800000
 20
101.931353
 30
0.0
 10
31.117702
 20
100.039625
 30
0.0
 10
26.617114
 20
97.797178
 30
0.0
  0
LWPOLYLINE
  5
35e
100
AcDbEntity
  8
0
 62
7
100
AcDbPolyline
 90
3
 70
0
 10
27.052894
 20
105.216418
 30
0.0
 10
27.825785
 20
105.604975
 30
0.0
 10
31.312894
 20
103.866324
 30
0.0
  0
SPLINE
  5
35f
100
AcDbEntity
  8
0
 62
7
100
AcDbSpline
 70
8
 71
3
 72
8
 73
4
 74
0
 40
0
 40
0
 40
0
 40
0
 40
1
 40
1
 40
1
 40
1
 10
25.140562
 20
99.469104
 30
0.0
 10
27.658265
 20
100.717112
 30
0.0
 10
29.776282
 20
101.832180
 30
0.0
 10
29.847264
 20
101.947032
 30
0.0
  0
SPLINE
  5
360
100
AcDbEntity
  8
0
 62
7
100
AcDbSpline
 70
8
 71
3
 72
8
 73
4
 74
0
 40
0
 40
0
 40
0
 40
0
 40
1
 40
1
 40
1
 40
1
 10
29.847264
 20
101.947032
 30
0.0
 10
29.918244
 20
102.061884
 30
0.0
 10
29.493316
 20
102.390518
 30
0.0
 10
28.902972
 20
102.677330
 30
0.0
  0
LWPOLYLINE
  5
361
100
AcDbEntity
  8
0
 62
7
100
AcDbPolyline
 90
7
 70
0
 10
26.617114
 20
97.797178
 30
0.0
 10
18.434226
 20
93.720000
 30
0.0
 10
17.612713
 20
92.097254
 30
0.0
 10
16.791200
 20
90.474508
 30
0.0
 10
27.113998
 20
95.636998
 30
0.0
 10
37.436794
 20
100.799486
 30
0.0
 10
40.918397
 20
99.063581
 30
0.0
  0
SPLINE
  5
362
100
AcDbEntity
  8
0
 62
7
100
AcDbSpline
 70
8
 71
3
 72
8
 73
4
 74
0
 40
0
 40
0
 40
0
 40
0
 40
1
 40
1
 40
1
 40
1
 10
25.254812
 20
101.898008
 30
0.0
 10
22.785980
 20
100.650751
 30
0.0
 10
22.632552
 20
100.527296
 30
0.0
 10
21.527228
 20
98.898605
 30
0.0
  0
SPLINE
  5
363
100
AcDbEntity
  8
0
 62
7
100
AcDbSpline
 70
8
 71
3
 72
8
 73
4
 74
0
 40
0
 40
0
 40
0
 40
0
 40
1
 40
1
 40
1
 40
1
 10
21.527228
 20
98.898605
 30
0.0
 10
20.893203
 20
97.964371
 30
0.0
 10
20.416860
 20
97.200000
 30
0.0
 10
20.468688
 20
97.200000
 30
0.0
  0
SPLINE
  5
364
100
AcDbEntity
  8
0
 62
7
100
AcDbSpline
 70
8
 71
3
 72
8
 73
4
 74
0
 40
0
 40
0
 40
0
 40
0
 40
1
 40
1
 40
1
 40
1
 10
20.468688
 20
97.200000
 30
0.0
 10
20.520513
 20
97.200000
 30
0.0
 10
22.622859
 20
98.221097
 30
0.0
 10
25.140562
 20
99.469104
 30
0.0
  0
LWPOLYLINE
  5
365
100
AcDbEntity
  8
0
 62
7
100
AcDbPolyline
 90
3
 70
0
 10
28.902972
 20
102.677330
 30
0.0
 10
27.829620
 20
103.198804
 30
0.0
 10
25.254812
 20
101.898008
 30
0.0
  0
LWPOLYLINE
  5
366
100
AcDbEntity
  8
0
 62
7
100
AcDbPolyline
 90
1
 70
1
 10
25.140562
 20
99.469104
 30
0.0
  0
SPLINE
  5
367
100
AcDbEntity
  8
0
 62
7
100
AcDbSpline
 70
8
 71
3
 72
8
 73
4
 74
0
 40
0
 40
0
 40
0
 40
0
 40
1
 40
1
 40
1
 40
1
 10
61.478736
 20
100.776216
 30
0.0
 10
60.269431
 20
101.376746
 30
0.0
 10
59.280000
 20
101.935910
 30
0.0
 10
59.280000
 20
102.018800
 30
0.0
  0
SPLINE
  5
368
100
AcDbEntity
  8
0
 62
7
100
AcDbSpline
 70
8
 71
3
 72
8
 73
4
 74
0
 40
0
 40
0
 40
0
 40
0
 40
1
 40
1
 40
1
 40
1
 10
59.280000
 20
102.018800
 30
0.0
 10
59.280000
 20
102.101690
 30
0.0
 10
60.252000
 20
102.639163
 30
0.0
 10
61.440000
 20
103.213183
 30
0.0
  0
SPLINE
  5
369
100
AcDbEntity
  8
0
 62
7
100
AcDbSpline
 70
8
 71
3
 72
8
 73
4
 74
0
 40
0
 40
0
 40
0
 40
0
 40
1
 40
1
 40
1
 40
1
 10
61.440000
 20
103.213183
 30
0.0
 10
62.628000
 20
103.787206
 30
0.0
 10
63.600000
 20
104.321544
 30
0.0
 10
63.600000
 20
104.400605
 30
0.0
  0
SPLINE
  5
36a
100
AcDbEntity
  8
0
 62
7
100
AcDbSpline
 70
8
 71
3
 72
8
 73
4
 74
0
 40
0
 40
0
 40
0
 40
0
 40
1
 40
1
 40
1
 40
1
 10
63.600000
 20
104.400605
 30
0.0
 10
63.600000
 20
104.479666
 30
0.0
 10
63.111581
 20
104.781644
 30
0.0
 10
62.514626
 20
105.071669
 30
0.0
  0
LWPOLYLINE
  5
36b
100
AcDbEntity
  8
0
 62
7
100
AcDbPolyline
 90
3
 70
0
 10
62.528508
 20
99.042170
 30
0.0
 10
63.677474
 20
99.684338
 30
0.0
 10
61.478736
 20
100.776216
 30
0.0
  0
SPLINE
  5
36c
100
AcDbEntity
  8
0
 62
7
100
AcDbSpline
 70
8
 71
3
 72
8
 73
4
 74
0
 40
0
 40
0
 40
0
 40
0
 40
1
 40
1
 40
1
 40
1
 10
53.163242
 20
104.935603
 30
0.0
 10
51.247460
 20
105.890800
 30
0.0
 10
49.680000
 20
106.728797
 30
0.0
 10
49.680000
 20
106.797818
 30
0.0
  0
SPLINE
  5
36d
100
AcDbEntity
  8
0
 62
7
100
AcDbSpline
 70
8
 71
3
 72
8
 73
4
 74
0
 40
0
 40
0
 40
0
 40
0
 40
1
 40
1
 40
1
 40
1
 10
49.680000
 20
106.797818
 30
0.0
 10
49.680000
 20
106.866841
 30
0.0
 10
55.944000
 20
110.053821
 30
0.0
 10
63.600000
 20
113.880000
 30
0.0
  0
SPLINE
  5
36e
100
AcDbEntity
  8
0
 62
7
100
AcDbSpline
 70
8
 71
3
 72
8
 73
4
 74
0
 40
0
 40
0
 40
0
 40
0
 40
1
 40
1
 40
1
 40
1
 10
63.600000
 20
113.880000
 30
0.0
 10
71.256000
 20
117.706179
 30
0.0
 10
77.520000
 20
120.899767
 30
0.0
 10
77.520000
 20
120.976861
 30
0.0
  0
SPLINE
  5
36f
100
AcDbEntity
  8
0
 62
7
100
AcDbSpline
 70
8
 71
3
 72
8
 73
4
 74
0
 40
0
 40
0
 40
0
 40
0
 40
1
 40
1
 40
1
 40
1
 10
77.520000
 20
120.976861
 30
0.0
 10
77.520000
 20
121.053954
 30
0.0
 10
76.821645
 20
121.245708
 30
0.0
 10
75.968100
 20
121.402980
 30
0.0
  0
LWPOLYLINE
  5
370
100
AcDbEntity
  8
0
 62
7
100
AcDbPolyline
 90
5
 70
0
 10
62.514626
 20
105.071669
 30
0.0
 10
61.429253
 20
105.598982
 30
0.0
 10
59.037869
 20
104.398930
 30
0.0
 10
56.646484
 20
103.198880
 30
0.0
 10
53.163242
 20
104.935603
 30
0.0
  0
SPLINE
  5
371
100
AcDbEntity
  8
0
 62
7
100
AcDbSpline
 70
8
 71
3
 72
8
 73
4
 74
0
 40
0
 40
0
 40
0
 40
0
 40
1
 40
1
 40
1
 40
1
 10
43.561471
 20
109.736486
 30
0.0
 10
41.646662
 20
110.691198
 30
0.0
 10
40.080000
 20
111.532836
 30
0.0
 10
40.080000
 20
111.606793
 30
0.0
  0
SPLINE
  5
372
100
AcDbEntity
  8
0
 62
7
100
AcDbSpline
 70
8
 71
3
 72
8
 73
4
 74
0
 40
0
 40
0
 40
0
 40
0
 40
1
 40
1
 40
1
 40
1
 10
40.080000
 20
111.606793
 30
0.0
 10
40.080000
 20
111.680750
 30
0.0
 10
41.052000
 20
112.217692
 30
0.0
 10
42.240000
 20
112.800000
 30
0.0
  0
SPLINE
  5
373
100
AcDbEntity
  8
0
 62
7
100
AcDbSpline
 70
8
 71
3
 72
8
 73
4
 74
0
 40
0
 40
0
 40
0
 40
0
 40
1
 40
1
 40
1
 40
1
 10
42.240000
 20
112.800000
 30
0.0
 10
43.428000
 20
113.382308
 30
0.0
 10
44.400000
 20
113.923004
 30
0.0
 10
44.400000
 20
114.001547
 30
0.0
  0
SPLINE
  5
374
100
AcDbEntity
  8
0
 62
7
100
AcDbSpline
 70
8
 71
3
 72
8
 73
4
 74
0
 40
0
 40
0
 40
0
 40
0
 40
1
 40
1
 40
1
 40
1
 10
44.400000
 20
114.001547
 30
0.0
 10
44.400000
 20
114.080090
 30
0.0
 10
43.911580
 20
114.381644
 30
0.0
 10
43.314626
 20
114.671668
 30
0.0
  0
LWPOLYLINE
  5
375
100
AcDbEntity
  8
0
 62
7
100
AcDbPolyline
 90
5
 70
0
 10
75.968100
 20
121.402980
 30
0.0
 10
74.416200
 20
121.688929
 30
0.0
 10
60.729572
 20
114.844786
 30
0.0
 10
47.042942
 20
108.000644
 30
0.0
 10
43.561471
 20
109.736486
 30
0.0
  0
SPLINE
  5
376
100
AcDbEntity
  8
0
 62
7
100
AcDbSpline
 70
8
 71
3
 72
8
 73
4
 74
0
 40
0
 40
0
 40
0
 40
0
 40
1
 40
1
 40
1
 40
1
 10
39.842285
 20
114.001147
 30
0.0
 10
37.746197
 20
112.949280
 30
0.0
 10
37.381992
 20
112.836721
 30
0.0
 10
36.853594
 20
113.077475
 30
0.0
  0
SPLINE
  5
377
100
AcDbEntity
  8
0
 62
7
100
AcDbSpline
 70
8
 71
3
 72
8
 73
4
 74
0
 40
0
 40
0
 40
0
 40
0
 40
1
 40
1
 40
1
 40
1
 10
36.853594
 20
113.077475
 30
0.0
 10
36.335484
 20
113.313541
 30
0.0
 10
36.110924
 20
113.258367
 30
0.0
 10
35.237585
 20
112.680419
 30
0.0
  0
LWPOLYLINE
  5
378
100
AcDbEntity
  8
0
 62
7
100
AcDbPolyline
 90
3
 70
0
 10
43.314626
 20
114.671668
 30
0.0
 10
42.229253
 20
115.198983
 30
0.0
 10
39.842285
 20
114.001147
 30
0.0
  0
SPLINE
  5
379
100
AcDbEntity
  8
0
 62
7
100
AcDbSpline
 70
8
 71
3
 72
8
 73
4
 74
0
 40
0
 40
0
 40
0
 40
0
 40
1
 40
1
 40
1
 40
1
 10
47.771650
 20
105.217742
 30
0.0
 10
55.223244
 20
101.482442
 30
0.0
 10
61.333397
 20
98.420374
 30
0.0
 10
61.349772
 20
98.413145
 30
0.0
  0
SPLINE
  5
37a
100
AcDbEntity
  8
0
 62
7
100
AcDbSpline
 70
8
 71
3
 72
8
 73
4
 74
0
 40
0
 40
0
 40
0
 40
0
 40
1
 40
1
 40
1
 40
1
 10
61.349772
 20
98.413145
 30
0.0
 10
61.366137
 20
98.405945
 30
0.0
 10
61.896578
 20
98.688976
 30
0.0
 10
62.528508
 20
99.042170
 30
0.0
  0
LWPOLYLINE
  5
37b
100
AcDbEntity
  8
0
 62
7
100
AcDbPolyline
 90
3
 70
0
 10
35.237585
 20
112.680419
 30
0.0
 10
34.223302
 20
112.009198
 30
0.0
 10
47.771650
 20
105.217742
 30
0.0
  0
SPLINE
  5
37c
100
AcDbEntity
  8
0
 62
7
100
AcDbSpline
 70
8
 71
3
 72
8
 73
4
 74
0
 40
0
 40
0
 40
0
 40
0
 40
1
 40
1
 40
1
 40
1
 10
110.008193
 20
98.707066
 30
0.0
 10
110.397607
 20
98.991808
 30
0.0
 10
110.367240
 20
99.093880
 30
0.0
 10
109.590503
 20
100.111140
 30
0.0
  0
SPLINE
  5
37d
100
AcDbEntity
  8
0
 62
7
100
AcDbSpline
 70
8
 71
3
 72
8
 73
4
 74
0
 40
0
 40
0
 40
0
 40
0
 40
1
 40
1
 40
1
 40
1
 10
109.590503
 20
100.111140
 30
0.0
 10
109.129808
 20
100.714495
 30
0.0
 10
108.421478
 20
101.345416
 30
0.0
 10
108.016440
 20
101.513192
 30
0.0
  0
SPLINE
  5
37e
100
AcDbEntity
  8
0
 62
7
100
AcDbSpline
 70
8
 71
3
 72
8
 73
4
 74
0
 40
0
 40
0
 40
0
 40
0
 40
1
 40
1
 40
1
 40
1
 10
108.016440
 20
101.513192
 30
0.0
 10
107.242305
 20
101.833846
 30
0.0
 10
107.076773
 20
102.132260
 30
0.0
 10
107.579985
 20
102.299995
 30
0.0
  0
SPLINE
  5
37f
100
AcDbEntity
  8
0
 62
7
100
AcDbSpline
 70
8
 71
3
 72
8
 73
4
 74
0
 40
0
 40
0
 40
0
 40
0
 40
1
 40
1
 40
1
 40
1
 10
107.579985
 20
102.299995
 30
0.0
 10
107.776823
 20
102.365606
 30
0.0
 10
107.624910
 20
102.690494
 30
0.0
 10
107.138205
 20
103.244816
 30
0.0
  0
LWPOLYLINE
  5
380
100
AcDbEntity
  8
0
 62
7
100
AcDbPolyline
 90
1
 70
1
 10
62.528508
 20
99.042170
 30
0.0
  0
SPLINE
  5
381
100
AcDbEntity
  8
0
 62
7
100
AcDbSpline
 70
8
 71
3
 72
8
 73
4
 74
0
 40
0
 40
0
 40
0
 40
0
 40
1
 40
1
 40
1
 40
1
 10
101.166712
 20
104.933873
 30
0.0
 10
99.249022
 20
105.890023
 30
0.0
 10
97.680000
 20
106.733429
 30
0.0
 10
97.680000
 20
106.808110
 30
0.0
  0
SPLINE
  5
382
100
AcDbEntity
  8
0
 62
7
100
AcDbSpline
 70
8
 71
3
 72
8
 73
4
 74
0
 40
0
 40
0
 40
0
 40
0
 40
1
 40
1
 40
1
 40
1
 10
97.680000
 20
106.808110
 30
0.0
 10
97.680000
 20
106.882787
 30
0.0
 10
98.544000
 20
107.365140
 30
0.0
 10
99.600000
 20
107.880000
 30
0.0
  0
SPLINE
  5
383
100
AcDbEntity
  8
0
 62
7
100
AcDbSpline
 70
8
 71
3
 72
8
 73
4
 74
0
 40
0
 40
0
 40
0
 40
0
 40
1
 40
1
 40
1
 40
1
 10
99.600000
 20
107.880000
 30
0.0
 10
100.656000
 20
108.394858
 30
0.0
 10
101.512200
 20
108.875483
 30
0.0
 10
101.502675
 20
108.948053
 30
0.0
  0
SPLINE
  5
384
100
AcDbEntity
  8
0
 62
7
100
AcDbSpline
 70
8
 71
3
 72
8
 73
4
 74
0
 40
0
 40
0
 40
0
 40
0
 40
1
 40
1
 40
1
 40
1
 10
101.502675
 20
108.948053
 30
0.0
 10
101.493150
 20
109.020623
 30
0.0
 10
101.122163
 20
109.381507
 30
0.0
 10
100.678268
 20
109.750015
 30
0.0
  0
LWPOLYLINE
  5
385
100
AcDbEntity
  8
0
 62
7
100
AcDbPolyline
 90
5
 70
0
 10
107.138205
 20
103.244816
 30
0.0
 10
106.396440
 20
104.089642
 30
0.0
 10
105.524932
 20
103.642531
 30
0.0
 10
104.653425
 20
103.195418
 30
0.0
 10
101.166712
 20
104.933873
 30
0.0
  0
SPLINE
  5
386
100
AcDbEntity
  8
0
 62
7
100
AcDbSpline
 70
8
 71
3
 72
8
 73
4
 74
0
 40
0
 40
0
 40
0
 40
0
 40
1
 40
1
 40
1
 40
1
 10
91.563240
 20
109.735602
 30
0.0
 10
89.647463
 20
110.690800
 30
0.0
 10
88.080000
 20
111.532836
 30
0.0
 10
88.080000
 20
111.606793
 30
0.0
  0
SPLINE
  5
387
100
AcDbEntity
  8
0
 62
7
100
AcDbSpline
 70
8
 71
3
 72
8
 73
4
 74
0
 40
0
 40
0
 40
0
 40
0
 40
1
 40
1
 40
1
 40
1
 10
88.080000
 20
111.606793
 30
0.0
 10
88.080000
 20
111.680750
 30
0.0
 10
89.052000
 20
112.217692
 30
0.0
 10
90.240000
 20
112.800000
 30
0.0
  0
SPLINE
  5
388
100
AcDbEntity
  8
0
 62
7
100
AcDbSpline
 70
8
 71
3
 72
8
 73
4
 74
0
 40
0
 40
0
 40
0
 40
0
 40
1
 40
1
 40
1
 40
1
 10
90.240000
 20
112.800000
 30
0.0
 10
91.428000
 20
113.382308
 30
0.0
 10
92.400000
 20
113.923004
 30
0.0
 10
92.400000
 20
114.001547
 30
0.0
  0
SPLINE
  5
389
100
AcDbEntity
  8
0
 62
7
100
AcDbSpline
 70
8
 71
3
 72
8
 73
4
 74
0
 40
0
 40
0
 40
0
 40
0
 40
1
 40
1
 40
1
 40
1
 10
92.400000
 20
114.001547
 30
0.0
 10
92.400000
 20
114.080090
 30
0.0
 10
91.911577
 20
114.381644
 30
0.0
 10
91.314630
 20
114.671668
 30
0.0
  0
LWPOLYLINE
  5
38a
100
AcDbEntity
  8
0
 62
7
100
AcDbPolyline
 90
5
 70
0
 10
100.678268
 20
109.750015
 30
0.0
 10
99.871193
 20
110.420029
 30
0.0
 10
97.458840
 20
109.209454
 30
0.0
 10
95.046488
 20
107.998880
 30
0.0
 10
91.563240
 20
109.735602
 30
0.0
  0
SPLINE
  5
38b
100
AcDbEntity
  8
0
 62
7
100
AcDbSpline
 70
8
 71
3
 72
8
 73
4
 74
0
 40
0
 40
0
 40
0
 40
0
 40
1
 40
1
 40
1
 40
1
 10
79.565370
 20
114.671668
 30
0.0
 10
78.968422
 20
114.381644
 30
0.0
 10
78.480000
 20
114.083725
 30
0.0
 10
78.480000
 20
114.009625
 30
0.0
  0
SPLINE
  5
38c
100
AcDbEntity
  8
0
 62
7
100
AcDbSpline
 70
8
 71
3
 72
8
 73
4
 74
0
 40
0
 40
0
 40
0
 40
0
 40
1
 40
1
 40
1
 40
1
 10
78.480000
 20
114.009625
 30
0.0
 10
78.480000
 20
113.887166
 30
0.0
 10
109.141335
 20
98.450045
 30
0.0
 10
109.454130
 20
98.415019
 30
0.0
  0
SPLINE
  5
38d
100
AcDbEntity
  8
0
 62
7
100
AcDbSpline
 70
8
 71
3
 72
8
 73
4
 74
0
 40
0
 40
0
 40
0
 40
0
 40
1
 40
1
 40
1
 40
1
 10
109.454130
 20
98.415019
 30
0.0
 10
109.527930
 20
98.406762
 30
0.0
 10
109.777230
 20
98.538180
 30
0.0
 10
110.008192
 20
98.707066
 30
0.0
  0
LWPOLYLINE
  5
38e
100
AcDbEntity
  8
0
 62
7
100
AcDbPolyline
 90
7
 70
0
 10
91.314630
 20
114.671668
 30
0.0
 10
90.229253
 20
115.198983
 30
0.0
 10
87.834630
 20
113.997303
 30
0.0
 10
85.440000
 20
112.795624
 30
0.0
 10
83.045370
 20
113.997303
 30
0.0
 10
80.650747
 20
115.198983
 30
0.0
 10
79.565370
 20
114.671668
 30
0.0
  0
SPLINE
  5
38f
100
AcDbEntity
  8
0
 62
7
100
AcDbSpline
 70
8
 71
3
 72
8
 73
4
 74
0
 40
0
 40
0
 40
0
 40
0
 40
1
 40
1
 40
1
 40
1
 10
104.141910
 20
106.450087
 30
0.0
 10
103.564035
 20
107.027964
 30
0.0
 10
103.161848
 20
107.250295
 30
0.0
 10
102.885915
 20
107.144410
 30
0.0
  0
SPLINE
  5
390
100
AcDbEntity
  8
0
 62
7
100
AcDbSpline
 70
8
 71
3
 72
8
 73
4
 74
0
 40
0
 40
0
 40
0
 40
0
 40
1
 40
1
 40
1
 40
1
 10
102.885915
 20
107.144410
 30
0.0
 10
102.263708
 20
106.905646
 30
0.0
 10
102.389775
 20
106.699892
 30
0.0
 10
103.500000
 20
106.142172
 30
0.0
  0
SPLINE
  5
391
100
AcDbEntity
  8
0
 62
7
100
AcDbSpline
 70
8
 71
3
 72
8
 73
4
 74
0
 40
0
 40
0
 40
0
 40
0
 40
1
 40
1
 40
1
 40
1
 10
103.500000
 20
106.142172
 30
0.0
 10
104.958255
 20
105.409620
 30
0.0
 10
105.109725
 20
105.482276
 30
0.0
 10
104.141910
 20
106.450087
 30
0.0
  0
LWPOLYLINE
  5
392
100
AcDbEntity
  8
0
 62
7
100
AcDbPolyline
 90
1
 70
1
 10
110.008192
 20
98.707066
 30
0.0
  0
LWPOLYLINE
  5
393
100
AcDbEntity
  8
0
 62
7
100
AcDbPolyline
 90
1
 70
1
 10
104.141910
 20
106.450087
 30
0.0
  0
SPLINE
  5
394
100
AcDbEntity
  8
0
 62
7
100
AcDbSpline
 70
8
 71
3
 72
8
 73
4
 74
0
 40
0
 40
0
 40
0
 40
0
 40
1
 40
1
 40
1
 40
1
 10
56.598876
 20
120.024970
 30
0.0
 10
57.809494
 20
119.423786
 30
0.0
 10
58.800000
 20
118.873503
 30
0.0
 10
58.800000
 20
118.802118
 30
0.0
  0
SPLINE
  5
395
100
AcDbEntity
  8
0
 62
7
100
AcDbSpline
 70
8
 71
3
 72
8
 73
4
 74
0
 40
0
 40
0
 40
0
 40
0
 40
1
 40
1
 40
1
 40
1
 10
58.800000
 20
118.802118
 30
0.0
 10
58.800000
 20
118.730733
 30
0.0
 10
57.232541
 20
117.890800
 30
0.0
 10
55.316758
 20
116.935602
 30
0.0
  0
LWPOLYLINE
  5
396
100
AcDbEntity
  8
0
 62
7
100
AcDbPolyline
 90
11
 70
0
 10
58.793350
 20
116.260283
 30
0.0
 10
70.426700
 20
122.094339
 30
0.0
 10
68.366432
 20
122.265959
 30
0.0
 10
66.306161
 20
122.437578
 30
0.0
 10
63.872256
 20
121.216187
 30
0.0
 10
61.438352
 20
119.994796
 30
0.0
 10
59.713325
 20
120.863505
 30
0.0
 10
57.988298
 20
121.732214
 30
0.0
 10
56.193026
 20
121.425123
 30
0.0
 10
54.397754
 20
121.118031
 30
0.0
 10
56.598876
 20
120.024970
 30
0.0
  0
SPLINE
  5
397
100
AcDbEntity
  8
0
 62
7
100
AcDbSpline
 70
8
 71
3
 72
8
 73
4
 74
0
 40
0
 40
0
 40
0
 40
0
 40
1
 40
1
 40
1
 40
1
 10
45.965374
 20
117.071668
 30
0.0
 10
45.368420
 20
116.781644
 30
0.0
 10
44.880000
 20
116.480090
 30
0.0
 10
44.880000
 20
116.401547
 30
0.0
  0
SPLINE
  5
398
100
AcDbEntity
  8
0
 62
7
100
AcDbSpline
 70
8
 71
3
 72
8
 73
4
 74
0
 40
0
 40
0
 40
0
 40
0
 40
1
 40
1
 40
1
 40
1
 10
44.880000
 20
116.401547
 30
0.0
 10
44.880000
 20
116.323004
 30
0.0
 10
45.852000
 20
115.782308
 30
0.0
 10
47.040000
 20
115.200000
 30
0.0
  0
SPLINE
  5
399
100
AcDbEntity
  8
0
 62
7
100
AcDbSpline
 70
8
 71
3
 72
8
 73
4
 74
0
 40
0
 40
0
 40
0
 40
0
 40
1
 40
1
 40
1
 40
1
 10
47.040000
 20
115.200000
 30
0.0
 10
48.228000
 20
114.617692
 30
0.0
 10
49.200000
 20
114.077692
 30
0.0
 10
49.200000
 20
114.000000
 30
0.0
  0
SPLINE
  5
39a
100
AcDbEntity
  8
0
 62
7
100
AcDbSpline
 70
8
 71
3
 72
8
 73
4
 74
0
 40
0
 40
0
 40
0
 40
0
 40
1
 40
1
 40
1
 40
1
 10
49.200000
 20
114.000000
 30
0.0
 10
49.200000
 20
113.922308
 30
0.0
 10
48.233648
 20
113.385075
 30
0.0
 10
47.052548
 20
112.806150
 30
0.0
  0
SPLINE
  5
39b
100
AcDbEntity
  8
0
 62
7
100
AcDbSpline
 70
8
 71
3
 72
8
 73
4
 74
0
 40
0
 40
0
 40
0
 40
0
 40
1
 40
1
 40
1
 40
1
 10
47.052548
 20
112.806150
 30
0.0
 10
45.871450
 20
112.227225
 30
0.0
 10
44.960448
 20
111.663998
 30
0.0
 10
45.028100
 20
111.554535
 30
0.0
  0
SPLINE
  5
39c
100
AcDbEntity
  8
0
 62
7
100
AcDbSpline
 70
8
 71
3
 72
8
 73
4
 74
0
 40
0
 40
0
 40
0
 40
0
 40
1
 40
1
 40
1
 40
1
 10
45.028100
 20
111.554535
 30
0.0
 10
45.151784
 20
111.354410
 30
0.0
 10
46.815953
 20
110.419041
 30
0.0
 10
47.040000
 20
110.423720
 30
0.0
  0
SPLINE
  5
39d
100
AcDbEntity
  8
0
 62
7
100
AcDbSpline
 70
8
 71
3
 72
8
 73
4
 74
0
 40
0
 40
0
 40
0
 40
0
 40
1
 40
1
 40
1
 40
1
 10
47.040000
 20
110.423720
 30
0.0
 10
47.106000
 20
110.425070
 30
0.0
 10
52.395008
 20
113.051552
 30
0.0
 10
58.793350
 20
116.260283
 30
0.0
  0
LWPOLYLINE
  5
39e
100
AcDbEntity
  8
0
 62
7
100
AcDbPolyline
 90
5
 70
0
 10
55.316758
 20
116.935602
 30
0.0
 10
51.833516
 20
115.198878
 30
0.0
 10
49.442132
 20
116.398931
 30
0.0
 10
47.050747
 20
117.598983
 30
0.0
 10
45.965374
 20
117.071668
 30
0.0
  0
SPLINE
  5
39f
100
AcDbEntity
  8
0
 62
7
100
AcDbSpline
 70
8
 71
3
 72
8
 73
4
 74
0
 40
0
 40
0
 40
0
 40
0
 40
1
 40
1
 40
1
 40
1
 10
96.354683
 20
111.049997
 30
0.0
 10
97.083608
 20
111.407494
 30
0.0
 10
97.680000
 20
111.781600
 30
0.0
 10
97.680000
 20
111.881344
 30
0.0
  0
SPLINE
  5
3a0
100
AcDbEntity
  8
0
 62
7
100
AcDbSpline
 70
8
 71
3
 72
8
 73
4
 74
0
 40
0
 40
0
 40
0
 40
0
 40
1
 40
1
 40
1
 40
1
 10
97.680000
 20
111.881344
 30
0.0
 10
97.680000
 20
111.981087
 30
0.0
 10
97.288335
 20
112.328841
 30
0.0
 10
96.809625
 20
112.654130
 30
0.0
  0
LWPOLYLINE
  5
3a1
100
AcDbEntity
  8
0
 62
7
100
AcDbPolyline
 90
1
 70
1
 10
58.793350
 20
116.260283
 30
0.0
  0
SPLINE
  5
3a2
100
AcDbEntity
  8
0
 62
7
100
AcDbSpline
 70
8
 71
3
 72
8
 73
4
 74
0
 40
0
 40
0
 40
0
 40
0
 40
1
 40
1
 40
1
 40
1
 10
94.409625
 20
112.491270
 30
0.0
 10
93.568335
 20
112.076409
 30
0.0
 10
92.880000
 20
111.673435
 30
0.0
 10
92.880000
 20
111.595771
 30
0.0
  0
SPLINE
  5
3a3
100
AcDbEntity
  8
0
 62
7
100
AcDbSpline
 70
8
 71
3
 72
8
 73
4
 74
0
 40
0
 40
0
 40
0
 40
0
 40
1
 40
1
 40
1
 40
1
 10
92.880000
 20
111.595771
 30
0.0
 10
92.880000
 20
111.490207
 30
0.0
 10
94.612522
 20
110.513492
 30
0.0
 10
94.974683
 20
110.414888
 30
0.0
  0
SPLINE
  5
3a4
100
AcDbEntity
  8
0
 62
7
100
AcDbSpline
 70
8
 71
3
 72
8
 73
4
 74
0
 40
0
 40
0
 40
0
 40
0
 40
1
 40
1
 40
1
 40
1
 10
94.974683
 20
110.414888
 30
0.0
 10
95.004757
 20
110.406698
 30
0.0
 10
95.625757
 20
110.692498
 30
0.0
 10
96.354682
 20
111.049996
 30
0.0
  0
LWPOLYLINE
  5
3a5
100
AcDbEntity
  8
0
 62
7
100
AcDbPolyline
 90
3
 70
0
 10
96.809625
 20
112.654130
 30
0.0
 10
95.939250
 20
113.245563
 30
0.0
 10
94.409625
 20
112.491270
 30
0.0
  0
SPLINE
  5
3a6
100
AcDbEntity
  8
0
 62
7
100
AcDbSpline
 70
8
 71
3
 72
8
 73
4
 74
0
 40
0
 40
0
 40
0
 40
0
 40
1
 40
1
 40
1
 40
1
 10
52.913580
 20
118.127824
 30
0.0
 10
53.511110
 20
118.418127
 30
0.0
 10
54.000000
 20
118.722269
 30
0.0
 10
54.000000
 20
118.803695
 30
0.0
  0
SPLINE
  5
3a7
100
AcDbEntity
  8
0
 62
7
100
AcDbSpline
 70
8
 71
3
 72
8
 73
4
 74
0
 40
0
 40
0
 40
0
 40
0
 40
1
 40
1
 40
1
 40
1
 10
54.000000
 20
118.803695
 30
0.0
 10
54.000000
 20
118.885121
 30
0.0
 10
53.365382
 20
119.255062
 30
0.0
 10
52.589740
 20
119.625785
 30
0.0
  0
LWPOLYLINE
  5
3a8
100
AcDbEntity
  8
0
 62
7
100
AcDbPolyline
 90
1
 70
1
 10
96.354682
 20
111.049996
 30
0.0
  0
SPLINE
  5
3a9
100
AcDbEntity
  8
0
 62
7
100
AcDbSpline
 70
8
 71
3
 72
8
 73
4
 74
0
 40
0
 40
0
 40
0
 40
0
 40
1
 40
1
 40
1
 40
1
 10
50.040000
 20
118.488778
 30
0.0
 10
50.964000
 20
118.012934
 30
0.0
 10
51.744110
 20
117.618296
 30
0.0
 10
51.773580
 20
117.611804
 30
0.0
  0
SPLINE
  5
3aa
100
AcDbEntity
  8
0
 62
7
100
AcDbSpline
 70
8
 71
3
 72
8
 73
4
 74
0
 40
0
 40
0
 40
0
 40
0
 40
1
 40
1
 40
1
 40
1
 10
51.773580
 20
117.611804
 30
0.0
 10
51.803047
 20
117.605279
 30
0.0
 10
52.316050
 20
117.837520
 30
0.0
 10
52.913580
 20
118.127824
 30
0.0
  0
LWPOLYLINE
  5
3ab
100
AcDbEntity
  8
0
 62
7
100
AcDbPolyline
 90
5
 70
0
 10
52.589740
 20
119.625785
 30
0.0
 10
51.179482
 20
120.299827
 30
0.0
 10
49.769741
 20
119.826887
 30
0.0
 10
48.360000
 20
119.353947
 30
0.0
 10
50.040000
 20
118.488778
 30
0.0
  0
LWPOLYLINE
  5
3ac
100
AcDbEntity
  8
0
 62
7
100
AcDbPolyline
 90
1
 70
1
 10
52.913580
 20
118.127824
 30
0.0
  0
ENDSEC
  0
SECTION
  2
OBJECTS
  0
DICTIONARY
  5
C
330
0
100
AcDbDictionary
  3
ACAD_GROUP
350
D
  3
ACAD_MLINESTYLE
350
17
  0
DICTIONARY
  5
D
330
C
100
AcDbDictionary
  0
DICTIONARY
  5
1A
330
C
100
AcDbDictionary
  0
DICTIONARY
  5
17
330
C
100
AcDbDictionary
  3
STANDARD
350
18
  0
DICTIONARY
  5
19
330
C
100
AcDbDictionary
  0
ENDSEC
  0
EOF
