  0
SECTION
  2
HEADER
  9
$ACADVER
  1
AC1014
  9
$HANDSEED
  5
FFFF
  9
$MEASUREMENT
 70
     1
  0
ENDSEC
  0
SECTION
  2
TABLES
  0
TABLE
  2
VPORT
  5
8
330
0
100
AcDbSymbolTable
 70
     4
  0
VPORT
  5
2E
330
8
100
AcDbSymbolTableRecord
100
AcDbViewportTableRecord
  2
*ACTIVE
 70
     0
 10
0.0
 20
0.0
 11
1.0
 21
1.0
 12
210.0
 22
148.5
 13
0.0
 23
0.0
 14
10.0
 24
10.0
 15
10.0
 25
10.0
 16
0.0
 26
0.0
 36
1.0
 17
0.0
 27
0.0
 37
0.0
 40
341.0
 41
1.24
 42
50.0
 43
0.0
 44
0.0
 50
0.0
 51
0.0
 71
     0
 72
   100
 73
     1
 74
     3
 75
     0
 76
     0
 77
     0
 78
     0
  0
ENDTAB
  0
TABLE
  2
LTYPE
  5
5
330
0
100
AcDbSymbolTable
 70
     1
  0
LTYPE
  5
14
330
5
100
AcDbSymbolTableRecord
100
AcDbLinetypeTableRecord
  2
BYBLOCK
 70
     0
  3

 72
    65
 73
     0
 40
0.0
  0
LTYPE
  5
15
330
5
100
AcDbSymbolTableRecord
100
AcDbLinetypeTableRecord
  2
BYLAYER
 70
     0
  3

 72
    65
 73
     0
 40
0.0
  0
LTYPE
  5
16
330
5
100
AcDbSymbolTableRecord
100
AcDbLinetypeTableRecord
  2
CONTINUOUS
 70
     0
  3
Solid line
 72
    65
 73
     0
 40
0.0
  0
ENDTAB
  0
TABLE
  2
LAYER
  5
2
100
AcDbSymbolTable
 70
1
  0
LAYER
  5
50
100
AcDbSymbolTableRecord
100
AcDbLayerTableRecord
  2
0
 70
0
  6
CONTINUOUS
  0
ENDTAB
  0
TABLE
  2
STYLE
  5
3
330
0
100
AcDbSymbolTable
 70
     1
  0
STYLE
  5
11
330
3
100
AcDbSymbolTableRecord
100
AcDbTextStyleTableRecord
  2
STANDARD
 70
     0
 40
0.0
 41
1.0
 50
0.0
 71
     0
 42
2.5
  3
txt
  4

  0
ENDTAB
  0
TABLE
  2
VIEW
  5
6
330
0
100
AcDbSymbolTable
 70
     0
  0
ENDTAB
  0
TABLE
  2
UCS
  5
7
330
0
100
AcDbSymbolTable
 70
     0
  0
ENDTAB
  0
TABLE
  2
APPID
  5
9
330
0
100
AcDbSymbolTable
 70
     2
  0
APPID
  5
12
330
9
100
AcDbSymbolTableRecord
100
AcDbRegAppTableRecord
  2
ACAD
 70
     0
  0
ENDTAB
  0
TABLE
  2
DIMSTYLE
  5
A
330
0
100
AcDbSymbolTable
 70
     1
  0
DIMSTYLE
105
27
330
A
100
AcDbSymbolTableRecord
100
AcDbDimStyleTableRecord
  2
ISO-25
 70
     0
  3

  4

  5

  6

  7

 40
1.0
 41
2.5
 42
0.625
 43
3.75
 44
1.25
 45
0.0
 46
0.0
 47
0.0
 48
0.0
140
2.5
141
2.5
142
0.0
143
0.03937007874016
144
1.0
145
0.0
146
1.0
147
0.625
 71
     0
 72
     0
 73
     0
 74
     0
 75
     0
 76
     0
 77
     1
 78
     8
170
     0
171
     3
172
     1
173
     0
174
     0
175
     0
176
     0
177
     0
178
     0
270
     2
271
     2
272
     2
273
     2
274
     3
340
11
275
     0
280
     0
281
     0
282
     0
283
     0
284
     8
285
     0
286
     0
287
     3
288
     0
  0
ENDTAB
  0
TABLE
  2
BLOCK_RECORD
  5
1
330
0
100
AcDbSymbolTable
 70
     1
  0
BLOCK_RECORD
  5
1F
330
1
100
AcDbSymbolTableRecord
100
AcDbBlockTableRecord
  2
*MODEL_SPACE
  0
BLOCK_RECORD
  5
1B
330
1
100
AcDbSymbolTableRecord
100
AcDbBlockTableRecord
  2
*PAPER_SPACE
  0
ENDTAB
  0
ENDSEC
  0
SECTION
  2
BLOCKS
  0
BLOCK
  5
20
330
1F
100
AcDbEntity
  8
0
100
AcDbBlockBegin
  2
*MODEL_SPACE
 70
     0
 10
0.0
 20
0.0
 30
0.0
  3
*MODEL_SPACE
  1

  0
ENDBLK
  5
21
330
1F
100
AcDbEntity
  8
0
100
AcDbBlockEnd
  0
BLOCK
  5
1C
330
1B
100
AcDbEntity
 67
     1
  8
0
100
AcDbBlockBegin
  2
*PAPER_SPACE
  1

  0
ENDBLK
  5
1D
330
1B
100
AcDbEntity
 67
     1
  8
0
100
AcDbBlockEnd
  0
ENDSEC
  0
SECTION
  2
ENTITIES
  0
SPLINE
  5
100
100
AcDbEntity
  8
0
 62
7
100
AcDbSpline
 70
8
 71
3
 72
8
 73
4
 74
0
 40
0
 40
0
 40
0
 40
0
 40
1
 40
1
 40
1
 40
1
 10
60.360000
 20
8.555708
 30
0.0
 10
47.999616
 20
9.892755
 30
0.0
 10
36.761753
 20
14.576842
 30
0.0
 10
27.600000
 20
22.210500
 30
0.0
  0
SPLINE
  5
101
100
AcDbEntity
  8
0
 62
7
100
AcDbSpline
 70
8
 71
3
 72
8
 73
4
 74
0
 40
0
 40
0
 40
0
 40
0
 40
1
 40
1
 40
1
 40
1
 10
27.600000
 20
22.210500
 30
0.0
 10
24.752803
 20
24.582810
 30
0.0
 10
19.953229
 20
29.640187
 30
0.0
 10
17.821273
 20
32.514473
 30
0.0
  0
SPLINE
  5
102
100
AcDbEntity
  8
0
 62
7
100
AcDbSpline
 70
8
 71
3
 72
8
 73
4
 74
0
 40
0
 40
0
 40
0
 40
0
 40
1
 40
1
 40
1
 40
1
 10
17.821273
 20
32.514473
 30
0.0
 10
12.060407
 20
40.281240
 30
0.0
 10
8.383886
 20
48.990615
 30
0.0
 10
6.674612
 20
58.920000
 30
0.0
  0
SPLINE
  5
103
100
AcDbEntity
  8
0
 62
7
100
AcDbSpline
 70
8
 71
3
 72
8
 73
4
 74
0
 40
0
 40
0
 40
0
 40
0
 40
1
 40
1
 40
1
 40
1
 10
6.674612
 20
58.920000
 30
0.0
 10
5.945113
 20
63.157747
 30
0.0
 10
5.880222
 20
73.065276
 30
0.0
 10
6.555144
 20
77.160000
 30
0.0
  0
SPLINE
  5
104
100
AcDbEntity
  8
0
 62
7
100
AcDbSpline
 70
8
 71
3
 72
8
 73
4
 74
0
 40
0
 40
0
 40
0
 40
0
 40
1
 40
1
 40
1
 40
1
 10
6.555144
 20
77.160000
 30
0.0
 10
8.255053
 20
87.473256
 30
0.0
 10
11.988934
 20
96.444684
 30
0.0
 10
17.898308
 20
104.414309
 30
0.0
  0
SPLINE
  5
105
100
AcDbEntity
  8
0
 62
7
100
AcDbSpline
 70
8
 71
3
 72
8
 73
4
 74
0
 40
0
 40
0
 40
0
 40
0
 40
1
 40
1
 40
1
 40
1
 10
17.898308
 20
104.414309
 30
0.0
 10
20.079351
 20
107.355754
 30
0.0
 10
26.593592
 20
113.947233
 30
0.0
 10
29.461630
 20
116.114736
 30
0.0
  0
SPLINE
  5
106
100
AcDbEntity
  8
0
 62
7
100
AcDbSpline
 70
8
 71
3
 72
8
 73
4
 74
0
 40
0
 40
0
 40
0
 40
0
 40
1
 40
1
 40
1
 40
1
 10
29.461630
 20
116.114736
 30
0.0
 10
37.537546
 20
122.218061
 30
0.0
 10
46.779732
 20
126.120798
 30
0.0
 10
57.240000
 20
127.844828
 30
0.0
  0
SPLINE
  5
107
100
AcDbEntity
  8
0
 62
7
100
AcDbSpline
 70
8
 71
3
 72
8
 73
4
 74
0
 40
0
 40
0
 40
0
 40
0
 40
1
 40
1
 40
1
 40
1
 10
57.240000
 20
127.844828
 30
0.0
 10
60.995500
 20
128.463798
 30
0.0
 10
70.948771
 20
128.458827
 30
0.0
 10
74.880000
 20
127.836017
 30
0.0
  0
SPLINE
  5
108
100
AcDbEntity
  8
0
 62
7
100
AcDbSpline
 70
8
 71
3
 72
8
 73
4
 74
0
 40
0
 40
0
 40
0
 40
0
 40
1
 40
1
 40
1
 40
1
 10
74.880000
 20
127.836017
 30
0.0
 10
98.718593
 20
124.059361
 30
0.0
 10
117.622995
 20
107.224978
 30
0.0
 10
123.950152
 20
84.139023
 30
0.0
  0
SPLINE
  5
109
100
AcDbEntity
  8
0
 62
7
100
AcDbSpline
 70
8
 71
3
 72
8
 73
4
 74
0
 40
0
 40
0
 40
0
 40
0
 40
1
 40
1
 40
1
 40
1
 10
123.950152
 20
84.139023
 30
0.0
 10
125.508938
 20
78.451457
 30
0.0
 10
125.864160
 20
75.531483
 30
0.0
 10
125.864820
 20
68.400000
 30
0.0
  0
SPLINE
  5
10a
100
AcDbEntity
  8
0
 62
7
100
AcDbSpline
 70
8
 71
3
 72
8
 73
4
 74
0
 40
0
 40
0
 40
0
 40
0
 40
1
 40
1
 40
1
 40
1
 10
125.864820
 20
68.400000
 30
0.0
 10
125.865300
 20
62.894664
 30
0.0
 10
125.793045
 20
61.620730
 30
0.0
 10
125.326852
 20
58.920000
 30
0.0
  0
SPLINE
  5
10b
100
AcDbEntity
  8
0
 62
7
100
AcDbSpline
 70
8
 71
3
 72
8
 73
4
 74
0
 40
0
 40
0
 40
0
 40
0
 40
1
 40
1
 40
1
 40
1
 10
125.326852
 20
58.920000
 30
0.0
 10
123.122220
 20
46.147875
 30
0.0
 10
117.461527
 20
35.046787
 30
0.0
 10
108.560617
 20
26.040000
 30
0.0
  0
SPLINE
  5
10c
100
AcDbEntity
  8
0
 62
7
100
AcDbSpline
 70
8
 71
3
 72
8
 73
4
 74
0
 40
0
 40
0
 40
0
 40
0
 40
1
 40
1
 40
1
 40
1
 10
108.560617
 20
26.040000
 30
0.0
 10
99.699360
 20
17.073338
 30
0.0
 10
88.490085
 20
11.315895
 30
0.0
 10
75.583462
 20
9.101880
 30
0.0
  0
SPLINE
  5
10d
100
AcDbEntity
  8
0
 62
7
100
AcDbSpline
 70
8
 71
3
 72
8
 73
4
 74
0
 40
0
 40
0
 40
0
 40
0
 40
1
 40
1
 40
1
 40
1
 10
75.583462
 20
9.101880
 30
0.0
 10
73.244800
 20
8.700705
 30
0.0
 10
71.381052
 20
8.575155
 30
0.0
 10
66.960000
 20
8.520975
 30
0.0
  0
SPLINE
  5
10e
100
AcDbEntity
  8
0
 62
7
100
AcDbSpline
 70
8
 71
3
 72
8
 73
4
 74
0
 40
0
 40
0
 40
0
 40
0
 40
1
 40
1
 40
1
 40
1
 10
66.960000
 20
8.520975
 30
0.0
 10
63.858000
 20
8.482950
 30
0.0
 10
60.888000
 20
8.498550
 30
0.0
 10
60.360000
 20
8.555700
 30
0.0
  0
SPLINE
  5
10f
100
AcDbEntity
  8
0
 62
7
100
AcDbSpline
 70
8
 71
3
 72
8
 73
4
 74
0
 40
0
 40
0
 40
0
 40
0
 40
1
 40
1
 40
1
 40
1
 10
65.520416
 20
14.804580
 30
0.0
 10
63.470042
 20
15.696990
 30
0.0
 10
59.452874
 20
16.088423
 30
0.0
 10
57.000000
 20
15.634800
 30
0.0
  0
SPLINE
  5
110
100
AcDbEntity
  8
0
 62
7
100
AcDbSpline
 70
8
 71
3
 72
8
 73
4
 74
0
 40
0
 40
0
 40
0
 40
0
 40
1
 40
1
 40
1
 40
1
 10
57.000000
 20
15.634800
 30
0.0
 10
56.140769
 20
15.475897
 30
0.0
 10
56.102981
 20
15.441442
 30
0.0
 10
56.640000
 20
15.306495
 30
0.0
  0
SPLINE
  5
111
100
AcDbEntity
  8
0
 62
7
100
AcDbSpline
 70
8
 71
3
 72
8
 73
4
 74
0
 40
0
 40
0
 40
0
 40
0
 40
1
 40
1
 40
1
 40
1
 10
56.640000
 20
15.306495
 30
0.0
 10
57.869930
 20
14.997420
 30
0.0
 10
62.837345
 20
14.504767
 30
0.0
 10
65.160000
 20
14.461507
 30
0.0
  0
LWPOLYLINE
  5
112
100
AcDbEntity
  8
0
 62
7
100
AcDbPolyline
 90
1
 70
1
 10
60.360000
 20
8.555700
 30
0.0
  0
SPLINE
  5
113
100
AcDbEntity
  8
0
 62
7
100
AcDbSpline
 70
8
 71
3
 72
8
 73
4
 74
0
 40
0
 40
0
 40
0
 40
0
 40
1
 40
1
 40
1
 40
1
 10
72.153869
 20
15.604575
 30
0.0
 10
73.817657
 20
16.980780
 30
0.0
 10
75.555645
 20
17.598608
 30
0.0
 10
77.760000
 20
17.597453
 30
0.0
  0
SPLINE
  5
114
100
AcDbEntity
  8
0
 62
7
100
AcDbSpline
 70
8
 71
3
 72
8
 73
4
 74
0
 40
0
 40
0
 40
0
 40
0
 40
1
 40
1
 40
1
 40
1
 10
77.760000
 20
17.597453
 30
0.0
 10
78.822165
 20
17.596973
 30
0.0
 10
80.011980
 20
17.434560
 30
0.0
 10
80.662643
 20
17.201423
 30
0.0
  0
SPLINE
  5
115
100
AcDbEntity
  8
0
 62
7
100
AcDbSpline
 70
8
 71
3
 72
8
 73
4
 74
0
 40
0
 40
0
 40
0
 40
0
 40
1
 40
1
 40
1
 40
1
 10
80.662643
 20
17.201423
 30
0.0
 10
81.726952
 20
16.820070
 30
0.0
 10
81.822833
 20
16.825748
 30
0.0
 10
83.421143
 20
17.364900
 30
0.0
  0
LWPOLYLINE
  5
116
100
AcDbEntity
  8
0
 62
7
100
AcDbPolyline
 90
3
 70
0
 10
65.160000
 20
14.461507
 30
0.0
 10
66.360000
 20
14.439157
 30
0.0
 10
65.520416
 20
14.804580
 30
0.0
  0
SPLINE
  5
117
100
AcDbEntity
  8
0
 62
7
100
AcDbSpline
 70
8
 71
3
 72
8
 73
4
 74
0
 40
0
 40
0
 40
0
 40
0
 40
1
 40
1
 40
1
 40
1
 10
83.758500
 20
18.684053
 30
0.0
 10
80.310922
 20
20.672805
 30
0.0
 10
76.286662
 20
20.868158
 30
0.0
 10
72.793844
 20
19.216320
 30
0.0
  0
SPLINE
  5
118
100
AcDbEntity
  8
0
 62
7
100
AcDbSpline
 70
8
 71
3
 72
8
 73
4
 74
0
 40
0
 40
0
 40
0
 40
0
 40
1
 40
1
 40
1
 40
1
 10
72.793844
 20
19.216320
 30
0.0
 10
71.556760
 20
18.631268
 30
0.0
 10
68.399254
 20
16.056795
 30
0.0
 10
68.400430
 20
15.634148
 30
0.0
  0
SPLINE
  5
119
100
AcDbEntity
  8
0
 62
7
100
AcDbSpline
 70
8
 71
3
 72
8
 73
4
 74
0
 40
0
 40
0
 40
0
 40
0
 40
1
 40
1
 40
1
 40
1
 10
68.400430
 20
15.634148
 30
0.0
 10
68.401150
 20
15.341213
 30
0.0
 10
69.722153
 20
14.683808
 30
0.0
 10
70.353869
 20
14.661945
 30
0.0
  0
SPLINE
  5
11a
100
AcDbEntity
  8
0
 62
7
100
AcDbSpline
 70
8
 71
3
 72
8
 73
4
 74
0
 40
0
 40
0
 40
0
 40
0
 40
1
 40
1
 40
1
 40
1
 10
70.353869
 20
14.661945
 30
0.0
 10
70.762360
 20
14.647770
 30
0.0
 10
71.402360
 20
14.982960
 30
0.0
 10
72.153869
 20
15.604575
 30
0.0
  0
LWPOLYLINE
  5
11b
100
AcDbEntity
  8
0
 62
7
100
AcDbPolyline
 90
3
 70
0
 10
83.421143
 20
17.364900
 30
0.0
 10
85.077007
 20
17.923470
 30
0.0
 10
83.758500
 20
18.684053
 30
0.0
  0
SPLINE
  5
11c
100
AcDbEntity
  8
0
 62
7
100
AcDbSpline
 70
8
 71
3
 72
8
 73
4
 74
0
 40
0
 40
0
 40
0
 40
0
 40
1
 40
1
 40
1
 40
1
 10
76.920000
 20
15.600000
 30
0.0
 10
77.566733
 20
15.764565
 30
0.0
 10
77.578943
 20
15.783668
 30
0.0
 10
77.040000
 20
15.787680
 30
0.0
  0
SPLINE
  5
11d
100
AcDbEntity
  8
0
 62
7
100
AcDbSpline
 70
8
 71
3
 72
8
 73
4
 74
0
 40
0
 40
0
 40
0
 40
0
 40
1
 40
1
 40
1
 40
1
 10
77.040000
 20
15.787680
 30
0.0
 10
76.710000
 20
15.789930
 30
0.0
 10
76.170000
 20
15.705682
 30
0.0
 10
75.840000
 20
15.600000
 30
0.0
  0
SPLINE
  5
11e
100
AcDbEntity
  8
0
 62
7
100
AcDbSpline
 70
8
 71
3
 72
8
 73
4
 74
0
 40
0
 40
0
 40
0
 40
0
 40
1
 40
1
 40
1
 40
1
 10
75.840000
 20
15.600000
 30
0.0
 10
75.369840
 20
15.449430
 30
0.0
 10
75.343875
 20
15.408810
 30
0.0
 10
75.720000
 20
15.412320
 30
0.0
  0
SPLINE
  5
11f
100
AcDbEntity
  8
0
 62
7
100
AcDbSpline
 70
8
 71
3
 72
8
 73
4
 74
0
 40
0
 40
0
 40
0
 40
0
 40
1
 40
1
 40
1
 40
1
 10
75.720000
 20
15.412320
 30
0.0
 10
75.984000
 20
15.414570
 30
0.0
 10
76.524000
 20
15.499238
 30
0.0
 10
76.920000
 20
15.600000
 30
0.0
  0
LWPOLYLINE
  5
120
100
AcDbEntity
  8
0
 62
7
100
AcDbPolyline
 90
1
 70
1
 10
72.153869
 20
15.604575
 30
0.0
  0
SPLINE
  5
121
100
AcDbEntity
  8
0
 62
7
100
AcDbSpline
 70
8
 71
3
 72
8
 73
4
 74
0
 40
0
 40
0
 40
0
 40
0
 40
1
 40
1
 40
1
 40
1
 10
54.360000
 20
16.827690
 30
0.0
 10
54.888000
 20
16.992068
 30
0.0
 10
55.363044
 20
17.159130
 30
0.0
 10
55.415652
 20
17.198933
 30
0.0
  0
SPLINE
  5
122
100
AcDbEntity
  8
0
 62
7
100
AcDbSpline
 70
8
 71
3
 72
8
 73
4
 74
0
 40
0
 40
0
 40
0
 40
0
 40
1
 40
1
 40
1
 40
1
 10
55.415652
 20
17.198933
 30
0.0
 10
55.641091
 20
17.369505
 30
0.0
 10
54.020672
 20
19.358452
 30
0.0
 10
52.582985
 20
20.675828
 30
0.0
  0
SPLINE
  5
123
100
AcDbEntity
  8
0
 62
7
100
AcDbSpline
 70
8
 71
3
 72
8
 73
4
 74
0
 40
0
 40
0
 40
0
 40
0
 40
1
 40
1
 40
1
 40
1
 10
52.582985
 20
20.675828
 30
0.0
 10
49.749374
 20
23.272320
 30
0.0
 10
45.834746
 20
24.782348
 30
0.0
 10
41.880000
 20
24.804390
 30
0.0
  0
SPLINE
  5
124
100
AcDbEntity
  8
0
 62
7
100
AcDbSpline
 70
8
 71
3
 72
8
 73
4
 74
0
 40
0
 40
0
 40
0
 40
0
 40
1
 40
1
 40
1
 40
1
 10
41.880000
 20
24.804390
 30
0.0
 10
39.805402
 20
24.815940
 30
0.0
 10
36.387984
 20
24.193605
 30
0.0
 10
36.116818
 20
23.754855
 30
0.0
  0
SPLINE
  5
125
100
AcDbEntity
  8
0
 62
7
100
AcDbSpline
 70
8
 71
3
 72
8
 73
4
 74
0
 40
0
 40
0
 40
0
 40
0
 40
1
 40
1
 40
1
 40
1
 10
36.116818
 20
23.754855
 30
0.0
 10
36.051418
 20
23.649030
 30
0.0
 10
36.565382
 20
23.209290
 30
0.0
 10
37.258956
 20
22.777643
 30
0.0
  0
SPLINE
  5
126
100
AcDbEntity
  8
0
 62
7
100
AcDbSpline
 70
8
 71
3
 72
8
 73
4
 74
0
 40
0
 40
0
 40
0
 40
0
 40
1
 40
1
 40
1
 40
1
 10
37.258956
 20
22.777643
 30
0.0
 10
38.503558
 20
22.003050
 30
0.0
 10
38.554421
 20
21.993517
 30
0.0
 10
41.160000
 20
22.046580
 30
0.0
  0
SPLINE
  5
127
100
AcDbEntity
  8
0
 62
7
100
AcDbSpline
 70
8
 71
3
 72
8
 73
4
 74
0
 40
0
 40
0
 40
0
 40
0
 40
1
 40
1
 40
1
 40
1
 10
41.160000
 20
22.046580
 30
0.0
 10
45.613918
 20
22.137277
 30
0.0
 10
48.666686
 20
20.934645
 30
0.0
 10
51.394891
 20
18.014557
 30
0.0
  0
SPLINE
  5
128
100
AcDbEntity
  8
0
 62
7
100
AcDbSpline
 70
8
 71
3
 72
8
 73
4
 74
0
 40
0
 40
0
 40
0
 40
0
 40
1
 40
1
 40
1
 40
1
 10
51.394891
 20
18.014557
 30
0.0
 10
52.233701
 20
17.116755
 30
0.0
 10
53.028000
 20
16.415183
 30
0.0
 10
53.160000
 20
16.455502
 30
0.0
  0
SPLINE
  5
129
100
AcDbEntity
  8
0
 62
7
100
AcDbSpline
 70
8
 71
3
 72
8
 73
4
 74
0
 40
0
 40
0
 40
0
 40
0
 40
1
 40
1
 40
1
 40
1
 10
53.160000
 20
16.455502
 30
0.0
 10
53.292000
 20
16.495852
 30
0.0
 10
53.832000
 20
16.663305
 30
0.0
 10
54.360000
 20
16.827690
 30
0.0
  0
LWPOLYLINE
  5
12a
100
AcDbEntity
  8
0
 62
7
100
AcDbPolyline
 90
1
 70
1
 10
76.920000
 20
15.600000
 30
0.0
  0
SPLINE
  5
12b
100
AcDbEntity
  8
0
 62
7
100
AcDbSpline
 70
8
 71
3
 72
8
 73
4
 74
0
 40
0
 40
0
 40
0
 40
0
 40
1
 40
1
 40
1
 40
1
 10
71.538386
 20
20.607885
 30
0.0
 10
73.743974
 20
21.693690
 30
0.0
 10
75.389145
 20
22.073872
 30
0.0
 10
77.896440
 20
22.077150
 30
0.0
  0
SPLINE
  5
12c
100
AcDbEntity
  8
0
 62
7
100
AcDbSpline
 70
8
 71
3
 72
8
 73
4
 74
0
 40
0
 40
0
 40
0
 40
0
 40
1
 40
1
 40
1
 40
1
 10
77.896440
 20
22.077150
 30
0.0
 10
80.988840
 20
22.080900
 30
0.0
 10
83.716178
 20
21.171495
 30
0.0
 10
85.996545
 20
19.375372
 30
0.0
  0
LWPOLYLINE
  5
12d
100
AcDbEntity
  8
0
 62
7
100
AcDbPolyline
 90
1
 70
1
 10
54.360000
 20
16.827690
 30
0.0
  0
SPLINE
  5
12e
100
AcDbEntity
  8
0
 62
7
100
AcDbSpline
 70
8
 71
3
 72
8
 73
4
 74
0
 40
0
 40
0
 40
0
 40
0
 40
1
 40
1
 40
1
 40
1
 10
88.096545
 20
19.207755
 30
0.0
 10
88.747448
 20
19.512615
 30
0.0
 10
89.280000
 20
19.843185
 30
0.0
 10
89.280000
 20
19.942350
 30
0.0
  0
SPLINE
  5
12f
100
AcDbEntity
  8
0
 62
7
100
AcDbSpline
 70
8
 71
3
 72
8
 73
4
 74
0
 40
0
 40
0
 40
0
 40
0
 40
1
 40
1
 40
1
 40
1
 10
89.280000
 20
19.942350
 30
0.0
 10
89.280000
 20
20.373337
 30
0.0
 10
86.842530
 20
22.175430
 30
0.0
 10
85.080000
 20
23.047530
 30
0.0
  0
SPLINE
  5
130
100
AcDbEntity
  8
0
 62
7
100
AcDbSpline
 70
8
 71
3
 72
8
 73
4
 74
0
 40
0
 40
0
 40
0
 40
0
 40
1
 40
1
 40
1
 40
1
 10
85.080000
 20
23.047530
 30
0.0
 10
82.517918
 20
24.315247
 30
0.0
 10
80.537565
 20
24.785813
 30
0.0
 10
77.760000
 20
24.786870
 30
0.0
  0
SPLINE
  5
131
100
AcDbEntity
  8
0
 62
7
100
AcDbSpline
 70
8
 71
3
 72
8
 73
4
 74
0
 40
0
 40
0
 40
0
 40
0
 40
1
 40
1
 40
1
 40
1
 10
77.760000
 20
24.786870
 30
0.0
 10
73.894598
 20
24.788370
 30
0.0
 10
70.586362
 20
23.609205
 30
0.0
 10
67.539842
 20
21.144150
 30
0.0
  0
SPLINE
  5
132
100
AcDbEntity
  8
0
 62
7
100
AcDbSpline
 70
8
 71
3
 72
8
 73
4
 74
0
 40
0
 40
0
 40
0
 40
0
 40
1
 40
1
 40
1
 40
1
 10
67.539842
 20
21.144150
 30
0.0
 10
66.252151
 20
20.102235
 30
0.0
 10
63.872128
 20
17.368590
 30
0.0
 10
64.106105
 20
17.200230
 30
0.0
  0
SPLINE
  5
133
100
AcDbEntity
  8
0
 62
7
100
AcDbSpline
 70
8
 71
3
 72
8
 73
4
 74
0
 40
0
 40
0
 40
0
 40
0
 40
1
 40
1
 40
1
 40
1
 10
64.106105
 20
17.200230
 30
0.0
 10
64.157749
 20
17.163030
 30
0.0
 10
64.731929
 20
16.973970
 30
0.0
 10
65.382064
 20
16.780013
 30
0.0
  0
LWPOLYLINE
  5
134
100
AcDbEntity
  8
0
 62
7
100
AcDbPolyline
 90
3
 70
0
 10
85.996545
 20
19.375372
 30
0.0
 10
86.913098
 20
18.653453
 30
0.0
 10
88.096545
 20
19.207755
 30
0.0
  0
SPLINE
  5
135
100
AcDbEntity
  8
0
 62
7
100
AcDbSpline
 70
8
 71
3
 72
8
 73
4
 74
0
 40
0
 40
0
 40
0
 40
0
 40
1
 40
1
 40
1
 40
1
 10
68.269570
 20
18.132795
 30
0.0
 10
69.385632
 20
19.248863
 30
0.0
 10
70.515293
 20
20.104215
 30
0.0
 10
71.538386
 20
20.607885
 30
0.0
  0
LWPOLYLINE
  5
136
100
AcDbEntity
  8
0
 62
7
100
AcDbPolyline
 90
3
 70
0
 10
65.382064
 20
16.780013
 30
0.0
 10
66.564130
 20
16.427355
 30
0.0
 10
68.269570
 20
18.132795
 30
0.0
  0
SPLINE
  5
137
100
AcDbEntity
  8
0
 62
7
100
AcDbSpline
 70
8
 71
3
 72
8
 73
4
 74
0
 40
0
 40
0
 40
0
 40
0
 40
1
 40
1
 40
1
 40
1
 10
49.440000
 20
17.542395
 30
0.0
 10
47.739835
 20
19.018875
 30
0.0
 10
43.504496
 20
20.632492
 30
0.0
 10
42.059638
 20
20.354242
 30
0.0
  0
SPLINE
  5
138
100
AcDbEntity
  8
0
 62
7
100
AcDbSpline
 70
8
 71
3
 72
8
 73
4
 74
0
 40
0
 40
0
 40
0
 40
0
 40
1
 40
1
 40
1
 40
1
 10
42.059638
 20
20.354242
 30
0.0
 10
41.569964
 20
20.259938
 30
0.0
 10
44.846002
 20
18.709913
 30
0.0
 10
47.808492
 20
17.634233
 30
0.0
  0
SPLINE
  5
139
100
AcDbEntity
  8
0
 62
7
100
AcDbSpline
 70
8
 71
3
 72
8
 73
4
 74
0
 40
0
 40
0
 40
0
 40
0
 40
1
 40
1
 40
1
 40
1
 10
47.808492
 20
17.634233
 30
0.0
 10
49.035820
 20
17.188583
 30
0.0
 10
50.094000
 20
16.821480
 30
0.0
 10
50.160000
 20
16.818443
 30
0.0
  0
SPLINE
  5
13a
100
AcDbEntity
  8
0
 62
7
100
AcDbSpline
 70
8
 71
3
 72
8
 73
4
 74
0
 40
0
 40
0
 40
0
 40
0
 40
1
 40
1
 40
1
 40
1
 10
50.160000
 20
16.818443
 30
0.0
 10
50.226000
 20
16.815443
 30
0.0
 10
49.902000
 20
17.141183
 30
0.0
 10
49.440000
 20
17.542395
 30
0.0
  0
LWPOLYLINE
  5
13b
100
AcDbEntity
  8
0
 62
7
100
AcDbPolyline
 90
1
 70
1
 10
71.538386
 20
20.607885
 30
0.0
  0
SPLINE
  5
13c
100
AcDbEntity
  8
0
 62
7
100
AcDbSpline
 70
8
 71
3
 72
8
 73
4
 74
0
 40
0
 40
0
 40
0
 40
0
 40
1
 40
1
 40
1
 40
1
 10
62.976754
 20
18.859215
 30
0.0
 10
63.423650
 20
19.522822
 30
0.0
 10
64.465558
 20
20.735768
 30
0.0
 10
65.292103
 20
21.554663
 30
0.0
  0
LWPOLYLINE
  5
13d
100
AcDbEntity
  8
0
 62
7
100
AcDbPolyline
 90
1
 70
1
 10
49.440000
 20
17.542395
 30
0.0
  0
SPLINE
  5
13e
100
AcDbEntity
  8
0
 62
7
100
AcDbSpline
 70
8
 71
3
 72
8
 73
4
 74
0
 40
0
 40
0
 40
0
 40
0
 40
1
 40
1
 40
1
 40
1
 10
66.511745
 20
23.988683
 30
0.0
 10
66.075182
 20
25.445798
 30
0.0
 10
64.076549
 20
27.477007
 30
0.0
 10
62.498350
 20
28.067490
 30
0.0
  0
SPLINE
  5
13f
100
AcDbEntity
  8
0
 62
7
100
AcDbSpline
 70
8
 71
3
 72
8
 73
4
 74
0
 40
0
 40
0
 40
0
 40
0
 40
1
 40
1
 40
1
 40
1
 10
62.498350
 20
28.067490
 30
0.0
 10
60.872578
 20
28.675770
 30
0.0
 10
58.840280
 20
28.704323
 30
0.0
 10
57.252264
 20
28.141215
 30
0.0
  0
SPLINE
  5
140
100
AcDbEntity
  8
0
 62
7
100
AcDbSpline
 70
8
 71
3
 72
8
 73
4
 74
0
 40
0
 40
0
 40
0
 40
0
 40
1
 40
1
 40
1
 40
1
 10
57.252264
 20
28.141215
 30
0.0
 10
55.724132
 20
27.599325
 30
0.0
 10
53.746913
 20
25.695967
 30
0.0
 10
53.187761
 20
24.228563
 30
0.0
  0
LWPOLYLINE
  5
141
100
AcDbEntity
  8
0
 62
7
100
AcDbPolyline
 90
3
 70
0
 10
65.292103
 20
21.554663
 30
0.0
 10
66.794916
 20
23.043548
 30
0.0
 10
66.511745
 20
23.988683
 30
0.0
  0
SPLINE
  5
142
100
AcDbEntity
  8
0
 62
7
100
AcDbSpline
 70
8
 71
3
 72
8
 73
4
 74
0
 40
0
 40
0
 40
0
 40
0
 40
1
 40
1
 40
1
 40
1
 10
54.525929
 20
21.337020
 30
0.0
 10
55.490669
 20
20.346975
 30
0.0
 10
56.543090
 20
19.107157
 30
0.0
 10
56.864645
 20
18.581865
 30
0.0
  0
LWPOLYLINE
  5
143
100
AcDbEntity
  8
0
 62
7
100
AcDbPolyline
 90
3
 70
0
 10
53.187761
 20
24.228563
 30
0.0
 10
52.771858
 20
23.137095
 30
0.0
 10
54.525929
 20
21.337020
 30
0.0
  0
SPLINE
  5
144
100
AcDbEntity
  8
0
 62
7
100
AcDbSpline
 70
8
 71
3
 72
8
 73
4
 74
0
 40
0
 40
0
 40
0
 40
0
 40
1
 40
1
 40
1
 40
1
 10
93.666720
 20
22.140000
 30
0.0
 10
96.071452
 20
23.580998
 30
0.0
 10
100.320000
 20
26.626935
 30
0.0
 10
100.320000
 20
26.909970
 30
0.0
  0
SPLINE
  5
145
100
AcDbEntity
  8
0
 62
7
100
AcDbSpline
 70
8
 71
3
 72
8
 73
4
 74
0
 40
0
 40
0
 40
0
 40
0
 40
1
 40
1
 40
1
 40
1
 10
100.320000
 20
26.909970
 30
0.0
 10
100.320000
 20
27.014363
 30
0.0
 10
99.807000
 20
27.401318
 30
0.0
 10
99.180000
 20
27.769882
 30
0.0
  0
SPLINE
  5
146
100
AcDbEntity
  8
0
 62
7
100
AcDbSpline
 70
8
 71
3
 72
8
 73
4
 74
0
 40
0
 40
0
 40
0
 40
0
 40
1
 40
1
 40
1
 40
1
 10
99.180000
 20
27.769882
 30
0.0
 10
98.160292
 20
28.369290
 30
0.0
 10
97.812075
 20
28.440000
 30
0.0
 10
95.880000
 20
28.440000
 30
0.0
  0
SPLINE
  5
147
100
AcDbEntity
  8
0
 62
7
100
AcDbSpline
 70
8
 71
3
 72
8
 73
4
 74
0
 40
0
 40
0
 40
0
 40
0
 40
1
 40
1
 40
1
 40
1
 10
95.880000
 20
28.440000
 30
0.0
 10
94.215247
 20
28.440000
 30
0.0
 10
93.499890
 20
28.331535
 30
0.0
 10
92.760000
 20
27.966938
 30
0.0
  0
SPLINE
  5
148
100
AcDbEntity
  8
0
 62
7
100
AcDbSpline
 70
8
 71
3
 72
8
 73
4
 74
0
 40
0
 40
0
 40
0
 40
0
 40
1
 40
1
 40
1
 40
1
 10
92.760000
 20
27.966938
 30
0.0
 10
91.376700
 20
27.285278
 30
0.0
 10
89.666917
 20
25.480748
 30
0.0
 10
89.168977
 20
24.176918
 30
0.0
  0
LWPOLYLINE
  5
149
100
AcDbEntity
  8
0
 62
7
100
AcDbPolyline
 90
6
 70
0
 10
56.864645
 20
18.581865
 30
0.0
 10
57.449292
 20
17.626785
 30
0.0
 10
59.806752
 20
17.639760
 30
0.0
 10
62.164212
 20
17.652735
 30
0.0
 10
62.976754
 20
18.859283
 30
0.0
 10
62.976754
 20
18.859215
 30
0.0
  0
SPLINE
  5
14a
100
AcDbEntity
  8
0
 62
7
100
AcDbSpline
 70
8
 71
3
 72
8
 73
4
 74
0
 40
0
 40
0
 40
0
 40
0
 40
1
 40
1
 40
1
 40
1
 10
89.909805
 20
21.975848
 30
0.0
 10
90.553410
 20
21.383610
 30
0.0
 10
91.188907
 20
20.894768
 30
0.0
 10
91.322017
 20
20.889533
 30
0.0
  0
SPLINE
  5
14b
100
AcDbEntity
  8
0
 62
7
100
AcDbSpline
 70
8
 71
3
 72
8
 73
4
 74
0
 40
0
 40
0
 40
0
 40
0
 40
1
 40
1
 40
1
 40
1
 10
91.322017
 20
20.889533
 30
0.0
 10
91.455135
 20
20.884282
 30
0.0
 10
92.510250
 20
21.447000
 30
0.0
 10
93.666720
 20
22.140000
 30
0.0
  0
LWPOLYLINE
  5
14c
100
AcDbEntity
  8
0
 62
7
100
AcDbPolyline
 90
3
 70
0
 10
89.168977
 20
24.176918
 30
0.0
 10
88.739610
 20
23.052630
 30
0.0
 10
89.909805
 20
21.975848
 30
0.0
  0
SPLINE
  5
14d
100
AcDbEntity
  8
0
 62
7
100
AcDbSpline
 70
8
 71
3
 72
8
 73
4
 74
0
 40
0
 40
0
 40
0
 40
0
 40
1
 40
1
 40
1
 40
1
 10
51.557590
 20
25.053090
 30
0.0
 10
52.359676
 20
27.271223
 30
0.0
 10
54.980494
 20
29.467755
 30
0.0
 10
57.637020
 20
30.148328
 30
0.0
  0
SPLINE
  5
14e
100
AcDbEntity
  8
0
 62
7
100
AcDbSpline
 70
8
 71
3
 72
8
 73
4
 74
0
 40
0
 40
0
 40
0
 40
0
 40
1
 40
1
 40
1
 40
1
 10
57.637020
 20
30.148328
 30
0.0
 10
61.592748
 20
31.161735
 30
0.0
 10
66.107100
 20
29.116515
 30
0.0
 10
67.796398
 20
25.545638
 30
0.0
  0
SPLINE
  5
14f
100
AcDbEntity
  8
0
 62
7
100
AcDbSpline
 70
8
 71
3
 72
8
 73
4
 74
0
 40
0
 40
0
 40
0
 40
0
 40
1
 40
1
 40
1
 40
1
 10
67.796398
 20
25.545638
 30
0.0
 10
68.136112
 20
24.827535
 30
0.0
 10
68.462008
 20
24.240000
 30
0.0
 10
68.520610
 20
24.240000
 30
0.0
  0
SPLINE
  5
150
100
AcDbEntity
  8
0
 62
7
100
AcDbSpline
 70
8
 71
3
 72
8
 73
4
 74
0
 40
0
 40
0
 40
0
 40
0
 40
1
 40
1
 40
1
 40
1
 10
68.520610
 20
24.240000
 30
0.0
 10
68.579215
 20
24.240000
 30
0.0
 10
69.116436
 20
24.477705
 30
0.0
 10
69.714442
 20
24.768240
 30
0.0
  0
SPLINE
  5
151
100
AcDbEntity
  8
0
 62
7
100
AcDbSpline
 70
8
 71
3
 72
8
 73
4
 74
0
 40
0
 40
0
 40
0
 40
0
 40
1
 40
1
 40
1
 40
1
 10
69.714442
 20
24.768240
 30
0.0
 10
70.967604
 20
25.377075
 30
0.0
 10
70.969606
 20
25.507703
 30
0.0
 10
69.757334
 20
27.565658
 30
0.0
  0
SPLINE
  5
152
100
AcDbEntity
  8
0
 62
7
100
AcDbSpline
 70
8
 71
3
 72
8
 73
4
 74
0
 40
0
 40
0
 40
0
 40
0
 40
1
 40
1
 40
1
 40
1
 10
69.757334
 20
27.565658
 30
0.0
 10
67.804644
 20
30.880568
 30
0.0
 10
63.741034
 20
33.120000
 30
0.0
 10
59.678609
 20
33.120000
 30
0.0
  0
SPLINE
  5
153
100
AcDbEntity
  8
0
 62
7
100
AcDbSpline
 70
8
 71
3
 72
8
 73
4
 74
0
 40
0
 40
0
 40
0
 40
0
 40
1
 40
1
 40
1
 40
1
 10
59.678609
 20
33.120000
 30
0.0
 10
58.199971
 20
33.120000
 30
0.0
 10
55.989461
 20
32.586255
 30
0.0
 10
54.502620
 20
31.870215
 30
0.0
  0
SPLINE
  5
154
100
AcDbEntity
  8
0
 62
7
100
AcDbSpline
 70
8
 71
3
 72
8
 73
4
 74
0
 40
0
 40
0
 40
0
 40
0
 40
1
 40
1
 40
1
 40
1
 10
54.502620
 20
31.870215
 30
0.0
 10
52.876577
 20
31.087133
 30
0.0
 10
50.378540
 20
28.588425
 30
0.0
 10
49.480058
 20
26.846310
 30
0.0
  0
LWPOLYLINE
  5
155
100
AcDbEntity
  8
0
 62
7
100
AcDbPolyline
 90
1
 70
1
 10
93.666720
 20
22.140000
 30
0.0
  0
SPLINE
  5
156
100
AcDbEntity
  8
0
 62
7
100
AcDbSpline
 70
8
 71
3
 72
8
 73
4
 74
0
 40
0
 40
0
 40
0
 40
0
 40
1
 40
1
 40
1
 40
1
 10
49.731254
 20
24.800183
 30
0.0
 10
51.095434
 20
24.086108
 30
0.0
 10
51.213852
 20
24.102510
 30
0.0
 10
51.557588
 20
25.053090
 30
0.0
  0
LWPOLYLINE
  5
157
100
AcDbEntity
  8
0
 62
7
100
AcDbPolyline
 90
3
 70
0
 10
49.480058
 20
26.846310
 30
0.0
 10
48.702514
 20
25.338675
 30
0.0
 10
49.731254
 20
24.800183
 30
0.0
  0
SPLINE
  5
158
100
AcDbEntity
  8
0
 62
7
100
AcDbSpline
 70
8
 71
3
 72
8
 73
4
 74
0
 40
0
 40
0
 40
0
 40
0
 40
1
 40
1
 40
1
 40
1
 10
87.689820
 20
25.335517
 30
0.0
 10
88.735350
 20
27.877695
 30
0.0
 10
91.998825
 20
30.108540
 30
0.0
 10
95.095185
 20
30.397680
 30
0.0
  0
SPLINE
  5
159
100
AcDbEntity
  8
0
 62
7
100
AcDbSpline
 70
8
 71
3
 72
8
 73
4
 74
0
 40
0
 40
0
 40
0
 40
0
 40
1
 40
1
 40
1
 40
1
 10
95.095185
 20
30.397680
 30
0.0
 10
96.998520
 20
30.575422
 30
0.0
 10
99.460672
 20
29.916465
 30
0.0
 10
100.965022
 20
28.826723
 30
0.0
  0
LWPOLYLINE
  5
15a
100
AcDbEntity
  8
0
 62
7
100
AcDbPolyline
 90
1
 70
1
 10
51.557588
 20
25.053090
 30
0.0
  0
SPLINE
  5
15b
100
AcDbEntity
  8
0
 62
7
100
AcDbSpline
 70
8
 71
3
 72
8
 73
4
 74
0
 40
0
 40
0
 40
0
 40
0
 40
1
 40
1
 40
1
 40
1
 10
103.075373
 20
30.593708
 30
0.0
 10
99.343275
 20
33.619830
 30
0.0
 10
93.698048
 20
33.922095
 30
0.0
 10
89.640000
 20
31.313093
 30
0.0
  0
SPLINE
  5
15c
100
AcDbEntity
  8
0
 62
7
100
AcDbSpline
 70
8
 71
3
 72
8
 73
4
 74
0
 40
0
 40
0
 40
0
 40
0
 40
1
 40
1
 40
1
 40
1
 10
89.640000
 20
31.313093
 30
0.0
 10
87.900465
 20
30.194708
 30
0.0
 10
86.341365
 20
28.516343
 30
0.0
 10
85.466880
 20
26.820750
 30
0.0
  0
LWPOLYLINE
  5
15d
100
AcDbEntity
  8
0
 62
7
100
AcDbPolyline
 90
5
 70
0
 10
100.965022
 20
28.826723
 30
0.0
 10
101.941222
 20
28.119570
 30
0.0
 10
102.865988
 20
29.066610
 30
0.0
 10
103.790753
 20
30.013658
 30
0.0
 10
103.075373
 20
30.593708
 30
0.0
  0
SPLINE
  5
15e
100
AcDbEntity
  8
0
 62
7
100
AcDbSpline
 70
8
 71
3
 72
8
 73
4
 74
0
 40
0
 40
0
 40
0
 40
0
 40
1
 40
1
 40
1
 40
1
 10
85.731255
 20
24.800183
 30
0.0
 10
86.297070
 20
24.504015
 30
0.0
 10
86.868000
 20
24.257213
 30
0.0
 10
87.000000
 20
24.251745
 30
0.0
  0
SPLINE
  5
15f
100
AcDbEntity
  8
0
 62
7
100
AcDbSpline
 70
8
 71
3
 72
8
 73
4
 74
0
 40
0
 40
0
 40
0
 40
0
 40
1
 40
1
 40
1
 40
1
 10
87.000000
 20
24.251745
 30
0.0
 10
87.132000
 20
24.246495
 30
0.0
 10
87.442418
 20
24.733973
 30
0.0
 10
87.689820
 20
25.335518
 30
0.0
  0
LWPOLYLINE
  5
160
100
AcDbEntity
  8
0
 62
7
100
AcDbPolyline
 90
3
 70
0
 10
85.466880
 20
26.820750
 30
0.0
 10
84.702517
 20
25.338675
 30
0.0
 10
85.731255
 20
24.800183
 30
0.0
  0
SPLINE
  5
161
100
AcDbEntity
  8
0
 62
7
100
AcDbSpline
 70
8
 71
3
 72
8
 73
4
 74
0
 40
0
 40
0
 40
0
 40
0
 40
1
 40
1
 40
1
 40
1
 10
34.538844
 20
25.181850
 30
0.0
 10
34.820347
 20
25.360042
 30
0.0
 10
34.770432
 20
25.613265
 30
0.0
 10
34.243898
 20
26.678175
 30
0.0
  0
SPLINE
  5
162
100
AcDbEntity
  8
0
 62
7
100
AcDbSpline
 70
8
 71
3
 72
8
 73
4
 74
0
 40
0
 40
0
 40
0
 40
0
 40
1
 40
1
 40
1
 40
1
 10
34.243898
 20
26.678175
 30
0.0
 10
33.369307
 20
28.447020
 30
0.0
 10
31.844280
 20
30.144285
 30
0.0
 10
30.139504
 20
31.246140
 30
0.0
  0
SPLINE
  5
163
100
AcDbEntity
  8
0
 62
7
100
AcDbSpline
 70
8
 71
3
 72
8
 73
4
 74
0
 40
0
 40
0
 40
0
 40
0
 40
1
 40
1
 40
1
 40
1
 10
30.139504
 20
31.246140
 30
0.0
 10
28.899640
 20
32.047500
 30
0.0
 10
27.966622
 20
32.413620
 30
0.0
 10
25.560000
 20
33.043133
 30
0.0
  0
SPLINE
  5
164
100
AcDbEntity
  8
0
 62
7
100
AcDbSpline
 70
8
 71
3
 72
8
 73
4
 74
0
 40
0
 40
0
 40
0
 40
0
 40
1
 40
1
 40
1
 40
1
 10
25.560000
 20
33.043133
 30
0.0
 10
24.899167
 20
33.215992
 30
0.0
 10
29.417244
 20
28.658070
 30
0.0
 10
31.920000
 20
26.627048
 30
0.0
  0
SPLINE
  5
165
100
AcDbEntity
  8
0
 62
7
100
AcDbSpline
 70
8
 71
3
 72
8
 73
4
 74
0
 40
0
 40
0
 40
0
 40
0
 40
1
 40
1
 40
1
 40
1
 10
31.920000
 20
26.627048
 30
0.0
 10
33.042000
 20
25.716525
 30
0.0
 10
34.014000
 20
24.970613
 30
0.0
 10
34.080000
 20
24.969450
 30
0.0
  0
SPLINE
  5
166
100
AcDbEntity
  8
0
 62
7
100
AcDbSpline
 70
8
 71
3
 72
8
 73
4
 74
0
 40
0
 40
0
 40
0
 40
0
 40
1
 40
1
 40
1
 40
1
 10
34.080000
 20
24.969450
 30
0.0
 10
34.146000
 20
24.967950
 30
0.0
 10
34.352479
 20
25.063875
 30
0.0
 10
34.538844
 20
25.181850
 30
0.0
  0
LWPOLYLINE
  5
167
100
AcDbEntity
  8
0
 62
7
100
AcDbPolyline
 90
1
 70
1
 10
87.689820
 20
25.335518
 30
0.0
  0
SPLINE
  5
168
100
AcDbEntity
  8
0
 62
7
100
AcDbSpline
 70
8
 71
3
 72
8
 73
4
 74
0
 40
0
 40
0
 40
0
 40
0
 40
1
 40
1
 40
1
 40
1
 10
38.220000
 20
26.293913
 30
0.0
 10
38.715000
 20
26.381640
 30
0.0
 10
39.120000
 20
26.568345
 30
0.0
 10
39.120000
 20
26.708805
 30
0.0
  0
SPLINE
  5
169
100
AcDbEntity
  8
0
 62
7
100
AcDbSpline
 70
8
 71
3
 72
8
 73
4
 74
0
 40
0
 40
0
 40
0
 40
0
 40
1
 40
1
 40
1
 40
1
 10
39.120000
 20
26.708805
 30
0.0
 10
39.120000
 20
26.849272
 30
0.0
 10
38.726153
 20
27.761280
 30
0.0
 10
38.244788
 20
28.735492
 30
0.0
  0
SPLINE
  5
16a
100
AcDbEntity
  8
0
 62
7
100
AcDbSpline
 70
8
 71
3
 72
8
 73
4
 74
0
 40
0
 40
0
 40
0
 40
0
 40
1
 40
1
 40
1
 40
1
 10
38.244788
 20
28.735492
 30
0.0
 10
36.477964
 20
32.311260
 30
0.0
 10
32.504534
 20
35.667480
 30
0.0
 10
28.618548
 20
36.866437
 30
0.0
  0
SPLINE
  5
16b
100
AcDbEntity
  8
0
 62
7
100
AcDbSpline
 70
8
 71
3
 72
8
 73
4
 74
0
 40
0
 40
0
 40
0
 40
0
 40
1
 40
1
 40
1
 40
1
 10
28.618548
 20
36.866437
 30
0.0
 10
26.638016
 20
37.477500
 30
0.0
 10
23.493772
 20
37.845930
 30
0.0
 10
22.464341
 20
37.587555
 30
0.0
  0
LWPOLYLINE
  5
16c
100
AcDbEntity
  8
0
 62
7
100
AcDbPolyline
 90
1
 70
1
 10
34.538844
 20
25.181850
 30
0.0
  0
SPLINE
  5
16d
100
AcDbEntity
  8
0
 62
7
100
AcDbSpline
 70
8
 71
3
 72
8
 73
4
 74
0
 40
0
 40
0
 40
0
 40
0
 40
1
 40
1
 40
1
 40
1
 10
22.713734
 20
36.257197
 30
0.0
 10
23.484376
 20
35.224958
 30
0.0
 10
23.722287
 20
35.066130
 30
0.0
 10
24.694778
 20
34.934677
 30
0.0
  0
SPLINE
  5
16e
100
AcDbEntity
  8
0
 62
7
100
AcDbSpline
 70
8
 71
3
 72
8
 73
4
 74
0
 40
0
 40
0
 40
0
 40
0
 40
1
 40
1
 40
1
 40
1
 10
24.694778
 20
34.934677
 30
0.0
 10
27.965746
 20
34.492530
 30
0.0
 10
30.285398
 20
33.566137
 30
0.0
 10
32.426338
 20
31.846942
 30
0.0
  0
SPLINE
  5
16f
100
AcDbEntity
  8
0
 62
7
100
AcDbSpline
 70
8
 71
3
 72
8
 73
4
 74
0
 40
0
 40
0
 40
0
 40
0
 40
1
 40
1
 40
1
 40
1
 10
32.426338
 20
31.846942
 30
0.0
 10
33.776192
 20
30.762997
 30
0.0
 10
35.784632
 20
28.049437
 30
0.0
 10
36.272146
 20
26.650950
 30
0.0
  0
SPLINE
  5
170
100
AcDbEntity
  8
0
 62
7
100
AcDbSpline
 70
8
 71
3
 72
8
 73
4
 74
0
 40
0
 40
0
 40
0
 40
0
 40
1
 40
1
 40
1
 40
1
 10
36.272146
 20
26.650950
 30
0.0
 10
36.453922
 20
26.129505
 30
0.0
 10
36.651206
 20
25.938997
 30
0.0
 10
36.926215
 20
26.019352
 30
0.0
  0
SPLINE
  5
171
100
AcDbEntity
  8
0
 62
7
100
AcDbSpline
 70
8
 71
3
 72
8
 73
4
 74
0
 40
0
 40
0
 40
0
 40
0
 40
1
 40
1
 40
1
 40
1
 10
36.926215
 20
26.019352
 30
0.0
 10
37.142796
 20
26.082652
 30
0.0
 10
37.725000
 20
26.206185
 30
0.0
 10
38.220000
 20
26.293913
 30
0.0
  0
LWPOLYLINE
  5
172
100
AcDbEntity
  8
0
 62
7
100
AcDbPolyline
 90
3
 70
0
 10
22.464341
 20
37.587555
 30
0.0
 10
21.837911
 20
37.430332
 30
0.0
 10
22.713734
 20
36.257197
 30
0.0
  0
SPLINE
  5
173
100
AcDbEntity
  8
0
 62
7
100
AcDbSpline
 70
8
 71
3
 72
8
 73
4
 74
0
 40
0
 40
0
 40
0
 40
0
 40
1
 40
1
 40
1
 40
1
 10
47.761876
 20
27.520185
 30
0.0
 10
49.193108
 20
30.427432
 30
0.0
 10
52.266070
 20
33.079882
 30
0.0
 10
55.542900
 20
34.236428
 30
0.0
  0
SPLINE
  5
174
100
AcDbEntity
  8
0
 62
7
100
AcDbSpline
 70
8
 71
3
 72
8
 73
4
 74
0
 40
0
 40
0
 40
0
 40
0
 40
1
 40
1
 40
1
 40
1
 10
55.542900
 20
34.236428
 30
0.0
 10
61.744790
 20
36.425377
 30
0.0
 10
69.062224
 20
33.334598
 30
0.0
 10
71.918926
 20
27.319440
 30
0.0
  0
SPLINE
  5
175
100
AcDbEntity
  8
0
 62
7
100
AcDbSpline
 70
8
 71
3
 72
8
 73
4
 74
0
 40
0
 40
0
 40
0
 40
0
 40
1
 40
1
 40
1
 40
1
 10
71.918926
 20
27.319440
 30
0.0
 10
72.383342
 20
26.341560
 30
0.0
 10
72.694204
 20
25.952655
 30
0.0
 10
72.951667
 20
26.027430
 30
0.0
  0
SPLINE
  5
176
100
AcDbEntity
  8
0
 62
7
100
AcDbSpline
 70
8
 71
3
 72
8
 73
4
 74
0
 40
0
 40
0
 40
0
 40
0
 40
1
 40
1
 40
1
 40
1
 10
72.951667
 20
26.027430
 30
0.0
 10
73.154248
 20
26.086305
 30
0.0
 10
73.725000
 20
26.206185
 30
0.0
 10
74.220000
 20
26.293913
 30
0.0
  0
SPLINE
  5
177
100
AcDbEntity
  8
0
 62
7
100
AcDbSpline
 70
8
 71
3
 72
8
 73
4
 74
0
 40
0
 40
0
 40
0
 40
0
 40
1
 40
1
 40
1
 40
1
 10
74.220000
 20
26.293913
 30
0.0
 10
74.715000
 20
26.381640
 30
0.0
 10
75.120000
 20
26.554425
 30
0.0
 10
75.120000
 20
26.677883
 30
0.0
  0
SPLINE
  5
178
100
AcDbEntity
  8
0
 62
7
100
AcDbSpline
 70
8
 71
3
 72
8
 73
4
 74
0
 40
0
 40
0
 40
0
 40
0
 40
1
 40
1
 40
1
 40
1
 10
75.120000
 20
26.677883
 30
0.0
 10
75.120000
 20
26.801333
 30
0.0
 10
74.715000
 20
27.725385
 30
0.0
 10
74.220000
 20
28.731338
 30
0.0
  0
SPLINE
  5
179
100
AcDbEntity
  8
0
 62
7
100
AcDbSpline
 70
8
 71
3
 72
8
 73
4
 74
0
 40
0
 40
0
 40
0
 40
0
 40
1
 40
1
 40
1
 40
1
 10
74.220000
 20
28.731338
 30
0.0
 10
73.072728
 20
31.062848
 30
0.0
 10
70.387042
 20
33.975728
 30
0.0
 10
68.186338
 20
35.275418
 30
0.0
  0
SPLINE
  5
17a
100
AcDbEntity
  8
0
 62
7
100
AcDbSpline
 70
8
 71
3
 72
8
 73
4
 74
0
 40
0
 40
0
 40
0
 40
0
 40
1
 40
1
 40
1
 40
1
 10
68.186338
 20
35.275418
 30
0.0
 10
63.292570
 20
38.165565
 30
0.0
 10
57.768022
 20
38.384715
 30
0.0
 10
52.680000
 20
35.890515
 30
0.0
  0
SPLINE
  5
17b
100
AcDbEntity
  8
0
 62
7
100
AcDbSpline
 70
8
 71
3
 72
8
 73
4
 74
0
 40
0
 40
0
 40
0
 40
0
 40
1
 40
1
 40
1
 40
1
 10
52.680000
 20
35.890515
 30
0.0
 10
49.213003
 20
34.190963
 30
0.0
 10
46.358512
 20
31.222500
 30
0.0
 10
45.010308
 20
27.914603
 30
0.0
  0
LWPOLYLINE
  5
17c
100
AcDbEntity
  8
0
 62
7
100
AcDbPolyline
 90
1
 70
1
 10
38.220000
 20
26.293913
 30
0.0
  0
SPLINE
  5
17d
100
AcDbEntity
  8
0
 62
7
100
AcDbSpline
 70
8
 71
3
 72
8
 73
4
 74
0
 40
0
 40
0
 40
0
 40
0
 40
1
 40
1
 40
1
 40
1
 10
45.560954
 20
26.248508
 30
0.0
 10
46.176430
 20
26.099190
 30
0.0
 10
46.746175
 20
25.964190
 30
0.0
 10
46.827052
 20
25.948508
 30
0.0
  0
SPLINE
  5
17e
100
AcDbEntity
  8
0
 62
7
100
AcDbSpline
 70
8
 71
3
 72
8
 73
4
 74
0
 40
0
 40
0
 40
0
 40
0
 40
1
 40
1
 40
1
 40
1
 10
46.827052
 20
25.948508
 30
0.0
 10
46.907932
 20
25.932833
 30
0.0
 10
47.328602
 20
26.640083
 30
0.0
 10
47.761876
 20
27.520185
 30
0.0
  0
LWPOLYLINE
  5
17f
100
AcDbEntity
  8
0
 62
7
100
AcDbPolyline
 90
3
 70
0
 10
45.010308
 20
27.914603
 30
0.0
 10
44.441906
 20
26.520000
 30
0.0
 10
45.560954
 20
26.248508
 30
0.0
  0
SPLINE
  5
180
100
AcDbEntity
  8
0
 62
7
100
AcDbSpline
 70
8
 71
3
 72
8
 73
4
 74
0
 40
0
 40
0
 40
0
 40
0
 40
1
 40
1
 40
1
 40
1
 10
83.767155
 20
27.539985
 30
0.0
 10
86.104950
 20
32.315490
 30
0.0
 10
92.095920
 20
35.565045
 30
0.0
 10
97.225087
 20
34.839690
 30
0.0
  0
SPLINE
  5
181
100
AcDbEntity
  8
0
 62
7
100
AcDbSpline
 70
8
 71
3
 72
8
 73
4
 74
0
 40
0
 40
0
 40
0
 40
0
 40
1
 40
1
 40
1
 40
1
 10
97.225087
 20
34.839690
 30
0.0
 10
100.268460
 20
34.409295
 30
0.0
 10
101.646547
 20
33.813315
 30
0.0
 10
104.808742
 20
31.559985
 30
0.0
  0
SPLINE
  5
182
100
AcDbEntity
  8
0
 62
7
100
AcDbSpline
 70
8
 71
3
 72
8
 73
4
 74
0
 40
0
 40
0
 40
0
 40
0
 40
1
 40
1
 40
1
 40
1
 10
104.808742
 20
31.559985
 30
0.0
 10
105.062302
 20
31.379295
 30
0.0
 10
105.360510
 20
31.553235
 30
0.0
 10
106.015335
 20
32.262900
 30
0.0
  0
LWPOLYLINE
  5
183
100
AcDbEntity
  8
0
 62
7
100
AcDbPolyline
 90
1
 70
1
 10
47.761876
 20
27.520185
 30
0.0
  0
SPLINE
  5
184
100
AcDbEntity
  8
0
 62
7
100
AcDbSpline
 70
8
 71
3
 72
8
 73
4
 74
0
 40
0
 40
0
 40
0
 40
0
 40
1
 40
1
 40
1
 40
1
 10
105.837360
 20
34.135620
 30
0.0
 10
103.520970
 20
36.191227
 30
0.0
 10
99.643365
 20
37.515420
 30
0.0
 10
95.880000
 20
37.536030
 30
0.0
  0
SPLINE
  5
185
100
AcDbEntity
  8
0
 62
7
100
AcDbSpline
 70
8
 71
3
 72
8
 73
4
 74
0
 40
0
 40
0
 40
0
 40
0
 40
1
 40
1
 40
1
 40
1
 10
95.880000
 20
37.536030
 30
0.0
 10
92.931367
 20
37.552155
 30
0.0
 10
91.464285
 20
37.213800
 30
0.0
 10
88.680000
 20
35.875350
 30
0.0
  0
SPLINE
  5
186
100
AcDbEntity
  8
0
 62
7
100
AcDbSpline
 70
8
 71
3
 72
8
 73
4
 74
0
 40
0
 40
0
 40
0
 40
0
 40
1
 40
1
 40
1
 40
1
 10
88.680000
 20
35.875350
 30
0.0
 10
85.242907
 20
34.223085
 30
0.0
 10
82.325767
 20
31.195567
 30
0.0
 10
80.977410
 20
27.881340
 30
0.0
  0
LWPOLYLINE
  5
187
100
AcDbEntity
  8
0
 62
7
100
AcDbPolyline
 90
3
 70
0
 10
106.015335
 20
32.262900
 30
0.0
 10
106.885117
 20
33.205815
 30
0.0
 10
105.837360
 20
34.135620
 30
0.0
  0
SPLINE
  5
188
100
AcDbEntity
  8
0
 62
7
100
AcDbSpline
 70
8
 71
3
 72
8
 73
4
 74
0
 40
0
 40
0
 40
0
 40
0
 40
1
 40
1
 40
1
 40
1
 10
81.551782
 20
26.248492
 30
0.0
 10
82.172302
 20
26.099175
 30
0.0
 10
82.746172
 20
25.964175
 30
0.0
 10
82.827052
 20
25.948492
 30
0.0
  0
SPLINE
  5
189
100
AcDbEntity
  8
0
 62
7
100
AcDbSpline
 70
8
 71
3
 72
8
 73
4
 74
0
 40
0
 40
0
 40
0
 40
0
 40
1
 40
1
 40
1
 40
1
 10
82.827052
 20
25.948492
 30
0.0
 10
82.907932
 20
25.932817
 30
0.0
 10
83.330977
 20
26.648985
 30
0.0
 10
83.767155
 20
27.539985
 30
0.0
  0
LWPOLYLINE
  5
18a
100
AcDbEntity
  8
0
 62
7
100
AcDbPolyline
 90
3
 70
0
 10
80.977410
 20
27.881340
 30
0.0
 10
80.423557
 20
26.519985
 30
0.0
 10
81.551782
 20
26.248492
 30
0.0
  0
SPLINE
  5
18b
100
AcDbEntity
  8
0
 62
7
100
AcDbSpline
 70
8
 71
3
 72
8
 73
4
 74
0
 40
0
 40
0
 40
0
 40
0
 40
1
 40
1
 40
1
 40
1
 10
42.635011
 20
27.059985
 30
0.0
 10
43.166551
 20
28.655228
 30
0.0
 10
44.902762
 20
31.678950
 30
0.0
 10
46.118824
 20
33.127268
 30
0.0
  0
LWPOLYLINE
  5
18c
100
AcDbEntity
  8
0
 62
7
100
AcDbPolyline
 90
1
 70
1
 10
83.767155
 20
27.539985
 30
0.0
  0
SPLINE
  5
18d
100
AcDbEntity
  8
0
 62
7
100
AcDbSpline
 70
8
 71
3
 72
8
 73
4
 74
0
 40
0
 40
0
 40
0
 40
0
 40
1
 40
1
 40
1
 40
1
 10
46.889162
 20
35.552168
 30
0.0
 10
46.518168
 20
35.939400
 30
0.0
 10
45.617959
 20
36.548160
 30
0.0
 10
44.888698
 20
36.904950
 30
0.0
  0
SPLINE
  5
18e
100
AcDbEntity
  8
0
 62
7
100
AcDbSpline
 70
8
 71
3
 72
8
 73
4
 74
0
 40
0
 40
0
 40
0
 40
0
 40
1
 40
1
 40
1
 40
1
 10
44.888698
 20
36.904950
 30
0.0
 10
43.802042
 20
37.436603
 30
0.0
 10
43.237694
 20
37.552860
 30
0.0
 10
41.761384
 20
37.549200
 30
0.0
  0
SPLINE
  5
18f
100
AcDbEntity
  8
0
 62
7
100
AcDbSpline
 70
8
 71
3
 72
8
 73
4
 74
0
 40
0
 40
0
 40
0
 40
0
 40
1
 40
1
 40
1
 40
1
 10
41.761384
 20
37.549200
 30
0.0
 10
39.681830
 20
37.543950
 30
0.0
 10
38.172760
 20
36.930945
 30
0.0
 10
36.825458
 20
35.543828
 30
0.0
  0
LWPOLYLINE
  5
190
100
AcDbEntity
  8
0
 62
7
100
AcDbPolyline
 90
3
 70
0
 10
46.118824
 20
33.127268
 30
0.0
 10
47.563699
 20
34.848105
 30
0.0
 10
46.889162
 20
35.552168
 30
0.0
  0
SPLINE
  5
191
100
AcDbEntity
  8
0
 62
7
100
AcDbSpline
 70
8
 71
3
 72
8
 73
4
 74
0
 40
0
 40
0
 40
0
 40
0
 40
1
 40
1
 40
1
 40
1
 10
37.214758
 20
33.418140
 30
0.0
 10
38.535856
 20
31.972650
 30
0.0
 10
40.044559
 20
29.521898
 30
0.0
 10
40.685650
 20
27.779985
 30
0.0
  0
SPLINE
  5
192
100
AcDbEntity
  8
0
 62
7
100
AcDbSpline
 70
8
 71
3
 72
8
 73
4
 74
0
 40
0
 40
0
 40
0
 40
0
 40
1
 40
1
 40
1
 40
1
 10
40.685650
 20
27.779985
 30
0.0
 10
41.054028
 20
26.779057
 30
0.0
 10
41.189990
 20
26.639985
 30
0.0
 10
41.800138
 20
26.639985
 30
0.0
  0
SPLINE
  5
193
100
AcDbEntity
  8
0
 62
7
100
AcDbSpline
 70
8
 71
3
 72
8
 73
4
 74
0
 40
0
 40
0
 40
0
 40
0
 40
1
 40
1
 40
1
 40
1
 10
41.800138
 20
26.639985
 30
0.0
 10
42.248659
 20
26.639985
 30
0.0
 10
42.544687
 20
26.788905
 30
0.0
 10
42.635011
 20
27.059985
 30
0.0
  0
LWPOLYLINE
  5
194
100
AcDbEntity
  8
0
 62
7
100
AcDbPolyline
 90
3
 70
0
 10
36.825458
 20
35.543828
 30
0.0
 10
36.025099
 20
34.719818
 30
0.0
 10
37.214758
 20
33.418140
 30
0.0
  0
SPLINE
  5
195
100
AcDbEntity
  8
0
 62
7
100
AcDbSpline
 70
8
 71
3
 72
8
 73
4
 74
0
 40
0
 40
0
 40
0
 40
0
 40
1
 40
1
 40
1
 40
1
 10
79.176840
 20
28.340445
 30
0.0
 10
79.939718
 20
30.153503
 30
0.0
 10
81.171127
 20
32.085180
 30
0.0
 10
82.595827
 20
33.703717
 30
0.0
  0
LWPOLYLINE
  5
196
100
AcDbEntity
  8
0
 62
7
100
AcDbPolyline
 90
1
 70
1
 10
42.635011
 20
27.059985
 30
0.0
  0
SPLINE
  5
197
100
AcDbEntity
  8
0
 62
7
100
AcDbSpline
 70
8
 71
3
 72
8
 73
4
 74
0
 40
0
 40
0
 40
0
 40
0
 40
1
 40
1
 40
1
 40
1
 10
82.899442
 20
35.541435
 30
0.0
 10
82.522792
 20
35.934577
 30
0.0
 10
81.623662
 20
36.545362
 30
0.0
 10
80.901367
 20
36.898747
 30
0.0
  0
SPLINE
  5
198
100
AcDbEntity
  8
0
 62
7
100
AcDbSpline
 70
8
 71
3
 72
8
 73
4
 74
0
 40
0
 40
0
 40
0
 40
0
 40
1
 40
1
 40
1
 40
1
 10
80.901367
 20
36.898747
 30
0.0
 10
78.297990
 20
38.172465
 30
0.0
 10
74.846911
 20
37.586355
 30
0.0
 10
72.776760
 20
35.518905
 30
0.0
  0
LWPOLYLINE
  5
199
100
AcDbEntity
  8
0
 62
7
100
AcDbPolyline
 90
3
 70
0
 10
82.595827
 20
33.703717
 30
0.0
 10
83.584260
 20
34.826640
 30
0.0
 10
82.899442
 20
35.541435
 30
0.0
  0
SPLINE
  5
19a
100
AcDbEntity
  8
0
 62
7
100
AcDbSpline
 70
8
 71
3
 72
8
 73
4
 74
0
 40
0
 40
0
 40
0
 40
0
 40
1
 40
1
 40
1
 40
1
 10
73.065384
 20
33.590782
 30
0.0
 10
74.454988
 20
32.105182
 30
0.0
 10
75.661155
 20
30.204982
 30
0.0
 10
76.479615
 20
28.211992
 30
0.0
  0
SPLINE
  5
19b
100
AcDbEntity
  8
0
 62
7
100
AcDbSpline
 70
8
 71
3
 72
8
 73
4
 74
0
 40
0
 40
0
 40
0
 40
0
 40
1
 40
1
 40
1
 40
1
 10
76.479615
 20
28.211992
 30
0.0
 10
77.090745
 20
26.723857
 30
0.0
 10
77.181052
 20
26.621460
 30
0.0
 10
77.823307
 20
26.688307
 30
0.0
  0
SPLINE
  5
19c
100
AcDbEntity
  8
0
 62
7
100
AcDbSpline
 70
8
 71
3
 72
8
 73
4
 74
0
 40
0
 40
0
 40
0
 40
0
 40
1
 40
1
 40
1
 40
1
 10
77.823307
 20
26.688307
 30
0.0
 10
78.423120
 20
26.750708
 30
0.0
 10
78.597517
 20
26.963610
 30
0.0
 10
79.176840
 20
28.340445
 30
0.0
  0
LWPOLYLINE
  5
19d
100
AcDbEntity
  8
0
 62
7
100
AcDbPolyline
 90
3
 70
0
 10
72.776760
 20
35.518905
 30
0.0
 10
71.993518
 20
34.736692
 30
0.0
 10
73.065384
 20
33.590782
 30
0.0
  0
SPLINE
  5
19e
100
AcDbEntity
  8
0
 62
7
100
AcDbSpline
 70
8
 71
3
 72
8
 73
4
 74
0
 40
0
 40
0
 40
0
 40
0
 40
1
 40
1
 40
1
 40
1
 10
35.532919
 20
36.861728
 30
0.0
 10
35.987813
 20
37.335683
 30
0.0
 10
37.008000
 20
38.064683
 30
0.0
 10
37.800000
 20
38.481728
 30
0.0
  0
SPLINE
  5
19f
100
AcDbEntity
  8
0
 62
7
100
AcDbSpline
 70
8
 71
3
 72
8
 73
4
 74
0
 40
0
 40
0
 40
0
 40
0
 40
1
 40
1
 40
1
 40
1
 10
37.800000
 20
38.481728
 30
0.0
 10
39.151094
 20
39.193185
 30
0.0
 10
39.395584
 20
39.240000
 30
0.0
 10
41.760000
 20
39.240000
 30
0.0
  0
SPLINE
  5
1a0
100
AcDbEntity
  8
0
 62
7
100
AcDbSpline
 70
8
 71
3
 72
8
 73
4
 74
0
 40
0
 40
0
 40
0
 40
0
 40
1
 40
1
 40
1
 40
1
 10
41.760000
 20
39.240000
 30
0.0
 10
44.030016
 20
39.240000
 30
0.0
 10
44.414770
 20
39.173775
 30
0.0
 10
45.638576
 20
38.572710
 30
0.0
  0
SPLINE
  5
1a1
100
AcDbEntity
  8
0
 62
7
100
AcDbSpline
 70
8
 71
3
 72
8
 73
4
 74
0
 40
0
 40
0
 40
0
 40
0
 40
1
 40
1
 40
1
 40
1
 10
45.638576
 20
38.572710
 30
0.0
 10
46.385794
 20
38.205690
 30
0.0
 10
47.450992
 20
37.464975
 30
0.0
 10
48.005688
 20
36.926663
 30
0.0
  0
SPLINE
  5
1a2
100
AcDbEntity
  8
0
 62
7
100
AcDbSpline
 70
8
 71
3
 72
8
 73
4
 74
0
 40
0
 40
0
 40
0
 40
0
 40
1
 40
1
 40
1
 40
1
 10
48.005688
 20
36.926663
 30
0.0
 10
49.097256
 20
35.867333
 30
0.0
 10
49.208986
 20
35.868690
 30
0.0
 10
50.640000
 20
36.958613
 30
0.0
  0
LWPOLYLINE
  5
1a3
100
AcDbEntity
  8
0
 62
7
100
AcDbPolyline
 90
1
 70
1
 10
79.176840
 20
28.340445
 30
0.0
  0
SPLINE
  5
1a4
100
AcDbEntity
  8
0
 62
7
100
AcDbSpline
 70
8
 71
3
 72
8
 73
4
 74
0
 40
0
 40
0
 40
0
 40
0
 40
1
 40
1
 40
1
 40
1
 10
50.160000
 20
38.519940
 30
0.0
 10
45.634440
 20
43.147492
 30
0.0
 10
38.599274
 20
43.297605
 30
0.0
 10
33.754759
 20
38.869995
 30
0.0
  0
SPLINE
  5
1a5
100
AcDbEntity
  8
0
 62
7
100
AcDbSpline
 70
8
 71
3
 72
8
 73
4
 74
0
 40
0
 40
0
 40
0
 40
0
 40
1
 40
1
 40
1
 40
1
 10
33.754759
 20
38.869995
 30
0.0
 10
33.009640
 20
38.188995
 30
0.0
 10
32.400778
 20
37.561657
 30
0.0
 10
32.401728
 20
37.475903
 30
0.0
  0
SPLINE
  5
1a6
100
AcDbEntity
  8
0
 62
7
100
AcDbSpline
 70
8
 71
3
 72
8
 73
4
 74
0
 40
0
 40
0
 40
0
 40
0
 40
1
 40
1
 40
1
 40
1
 10
32.401728
 20
37.475903
 30
0.0
 10
32.403378
 20
37.317180
 30
0.0
 10
34.330354
 20
36.010725
 30
0.0
 10
34.572919
 20
36.003788
 30
0.0
  0
SPLINE
  5
1a7
100
AcDbEntity
  8
0
 62
7
100
AcDbSpline
 70
8
 71
3
 72
8
 73
4
 74
0
 40
0
 40
0
 40
0
 40
0
 40
1
 40
1
 40
1
 40
1
 10
34.572919
 20
36.003788
 30
0.0
 10
34.646029
 20
36.001538
 30
0.0
 10
35.078026
 20
36.387765
 30
0.0
 10
35.532919
 20
36.861713
 30
0.0
  0
LWPOLYLINE
  5
1a8
100
AcDbEntity
  8
0
 62
7
100
AcDbPolyline
 90
3
 70
0
 10
50.640000
 20
36.958613
 30
0.0
 10
51.240000
 20
37.415603
 30
0.0
 10
50.160000
 20
38.519940
 30
0.0
  0
SPLINE
  5
1a9
100
AcDbEntity
  8
0
 62
7
100
AcDbSpline
 70
8
 71
3
 72
8
 73
4
 74
0
 40
0
 40
0
 40
0
 40
0
 40
1
 40
1
 40
1
 40
1
 10
71.651510
 20
36.944985
 30
0.0
 10
72.215364
 20
37.464727
 30
0.0
 10
73.253441
 20
38.193727
 30
0.0
 10
73.958350
 20
38.564985
 30
0.0
  0
SPLINE
  5
1aa
100
AcDbEntity
  8
0
 62
7
100
AcDbSpline
 70
8
 71
3
 72
8
 73
4
 74
0
 40
0
 40
0
 40
0
 40
0
 40
1
 40
1
 40
1
 40
1
 10
73.958350
 20
38.564985
 30
0.0
 10
75.127545
 20
39.180772
 30
0.0
 10
75.461115
 20
39.240000
 30
0.0
 10
77.760000
 20
39.240000
 30
0.0
  0
SPLINE
  5
1ab
100
AcDbEntity
  8
0
 62
7
100
AcDbSpline
 70
8
 71
3
 72
8
 73
4
 74
0
 40
0
 40
0
 40
0
 40
0
 40
1
 40
1
 40
1
 40
1
 10
77.760000
 20
39.240000
 30
0.0
 10
80.019562
 20
39.240000
 30
0.0
 10
80.418045
 20
39.172200
 30
0.0
 10
81.615720
 20
38.584013
 30
0.0
  0
SPLINE
  5
1ac
100
AcDbEntity
  8
0
 62
7
100
AcDbSpline
 70
8
 71
3
 72
8
 73
4
 74
0
 40
0
 40
0
 40
0
 40
0
 40
1
 40
1
 40
1
 40
1
 10
81.615720
 20
38.584013
 30
0.0
 10
82.350367
 20
38.223217
 30
0.0
 10
83.427255
 20
37.488750
 30
0.0
 10
84.008805
 20
36.951870
 30
0.0
  0
SPLINE
  5
1ad
100
AcDbEntity
  8
0
 62
7
100
AcDbSpline
 70
8
 71
3
 72
8
 73
4
 74
0
 40
0
 40
0
 40
0
 40
0
 40
1
 40
1
 40
1
 40
1
 10
84.008805
 20
36.951870
 30
0.0
 10
85.148707
 20
35.899515
 30
0.0
 10
85.249800
 20
35.899777
 30
0.0
 10
86.640000
 20
36.958620
 30
0.0
  0
LWPOLYLINE
  5
1ae
100
AcDbEntity
  8
0
 62
7
100
AcDbPolyline
 90
1
 70
1
 10
35.532919
 20
36.861713
 30
0.0
  0
SPLINE
  5
1af
100
AcDbEntity
  8
0
 62
7
100
AcDbSpline
 70
8
 71
3
 72
8
 73
4
 74
0
 40
0
 40
0
 40
0
 40
0
 40
1
 40
1
 40
1
 40
1
 10
86.160000
 20
38.519955
 30
0.0
 10
84.138757
 20
40.586745
 30
0.0
 10
82.059637
 20
41.620837
 30
0.0
 10
79.200000
 20
41.981647
 30
0.0
  0
SPLINE
  5
1b0
100
AcDbEntity
  8
0
 62
7
100
AcDbSpline
 70
8
 71
3
 72
8
 73
4
 74
0
 40
0
 40
0
 40
0
 40
0
 40
1
 40
1
 40
1
 40
1
 10
79.200000
 20
41.981647
 30
0.0
 10
75.977122
 20
42.388290
 30
0.0
 10
72.448552
 20
41.292270
 30
0.0
 10
70.015327
 20
39.128760
 30
0.0
  0
SPLINE
  5
1b1
100
AcDbEntity
  8
0
 62
7
100
AcDbSpline
 70
8
 71
3
 72
8
 73
4
 74
0
 40
0
 40
0
 40
0
 40
0
 40
1
 40
1
 40
1
 40
1
 10
70.015327
 20
39.128760
 30
0.0
 10
68.269792
 20
37.576717
 30
0.0
 10
68.218078
 20
37.358520
 30
0.0
 10
69.423494
 20
36.631665
 30
0.0
  0
SPLINE
  5
1b2
100
AcDbEntity
  8
0
 62
7
100
AcDbSpline
 70
8
 71
3
 72
8
 73
4
 74
0
 40
0
 40
0
 40
0
 40
0
 40
1
 40
1
 40
1
 40
1
 10
69.423494
 20
36.631665
 30
0.0
 10
69.982572
 20
36.294547
 30
0.0
 10
70.481923
 20
36.014512
 30
0.0
 10
70.533160
 20
36.009360
 30
0.0
  0
SPLINE
  5
1b3
100
AcDbEntity
  8
0
 62
7
100
AcDbSpline
 70
8
 71
3
 72
8
 73
4
 74
0
 40
0
 40
0
 40
0
 40
0
 40
1
 40
1
 40
1
 40
1
 10
70.533160
 20
36.009360
 30
0.0
 10
70.584400
 20
36.004110
 30
0.0
 10
71.087656
 20
36.425242
 30
0.0
 10
71.651510
 20
36.944977
 30
0.0
  0
LWPOLYLINE
  5
1b4
100
AcDbEntity
  8
0
 62
7
100
AcDbPolyline
 90
3
 70
0
 10
86.640000
 20
36.958620
 30
0.0
 10
87.240000
 20
37.415610
 30
0.0
 10
86.160000
 20
38.519955
 30
0.0
  0
SPLINE
  5
1b5
100
AcDbEntity
  8
0
 62
7
100
AcDbSpline
 70
8
 71
3
 72
8
 73
4
 74
0
 40
0
 40
0
 40
0
 40
0
 40
1
 40
1
 40
1
 40
1
 10
107.538532
 20
36.858097
 30
0.0
 10
108.021855
 20
37.330050
 30
0.0
 10
109.089097
 20
38.059335
 30
0.0
 10
109.910175
 20
38.478727
 30
0.0
  0
SPLINE
  5
1b6
100
AcDbEntity
  8
0
 62
7
100
AcDbSpline
 70
8
 71
3
 72
8
 73
4
 74
0
 40
0
 40
0
 40
0
 40
0
 40
1
 40
1
 40
1
 40
1
 10
109.910175
 20
38.478727
 30
0.0
 10
111.172297
 20
39.123390
 30
0.0
 10
111.531787
 20
39.459892
 30
0.0
 10
112.235902
 20
40.655760
 30
0.0
  0
LWPOLYLINE
  5
1b7
100
AcDbEntity
  8
0
 62
7
100
AcDbPolyline
 90
1
 70
1
 10
71.651510
 20
36.944977
 30
0.0
  0
SPLINE
  5
1b8
100
AcDbEntity
  8
0
 62
7
100
AcDbSpline
 70
8
 71
3
 72
8
 73
4
 74
0
 40
0
 40
0
 40
0
 40
0
 40
1
 40
1
 40
1
 40
1
 10
111.811350
 20
41.921347
 30
0.0
 10
109.943175
 20
41.700090
 30
0.0
 10
107.301997
 20
40.343640
 30
0.0
 10
105.679597
 20
38.772225
 30
0.0
  0
LWPOLYLINE
  5
1b9
100
AcDbEntity
  8
0
 62
7
100
AcDbPolyline
 90
3
 70
0
 10
112.235902
 20
40.655760
 30
0.0
 10
113.068747
 20
42.070267
 30
0.0
 10
111.811350
 20
41.921347
 30
0.0
  0
SPLINE
  5
1ba
100
AcDbEntity
  8
0
 62
7
100
AcDbSpline
 70
8
 71
3
 72
8
 73
4
 74
0
 40
0
 40
0
 40
0
 40
0
 40
1
 40
1
 40
1
 40
1
 10
105.365640
 20
36.714787
 30
0.0
 10
105.956535
 20
36.322785
 30
0.0
 10
106.489447
 20
36.001590
 30
0.0
 10
106.549882
 20
36.001027
 30
0.0
  0
SPLINE
  5
1bb
100
AcDbEntity
  8
0
 62
7
100
AcDbSpline
 70
8
 71
3
 72
8
 73
4
 74
0
 40
0
 40
0
 40
0
 40
0
 40
1
 40
1
 40
1
 40
1
 10
106.549882
 20
36.001027
 30
0.0
 10
106.610332
 20
36.000547
 30
0.0
 10
107.055210
 20
36.386145
 30
0.0
 10
107.538532
 20
36.858097
 30
0.0
  0
LWPOLYLINE
  5
1bc
100
AcDbEntity
  8
0
 62
7
100
AcDbPolyline
 90
3
 70
0
 10
105.679597
 20
38.772225
 30
0.0
 10
104.291272
 20
37.427527
 30
0.0
 10
105.365640
 20
36.714787
 30
0.0
  0
SPLINE
  5
1bd
100
AcDbEntity
  8
0
 62
7
100
AcDbSpline
 70
8
 71
3
 72
8
 73
4
 74
0
 40
0
 40
0
 40
0
 40
0
 40
1
 40
1
 40
1
 40
1
 10
32.111584
 20
39.783443
 30
0.0
 10
37.556112
 20
45.278835
 30
0.0
 10
45.893978
 20
45.332183
 30
0.0
 10
51.307198
 20
39.906255
 30
0.0
  0
LWPOLYLINE
  5
1be
100
AcDbEntity
  8
0
 62
7
100
AcDbPolyline
 90
1
 70
1
 10
107.538532
 20
36.858097
 30
0.0
  0
SPLINE
  5
1bf
100
AcDbEntity
  8
0
 62
7
100
AcDbSpline
 70
8
 71
3
 72
8
 73
4
 74
0
 40
0
 40
0
 40
0
 40
0
 40
1
 40
1
 40
1
 40
1
 10
54.247198
 20
38.545102
 30
0.0
 10
54.903240
 20
38.759685
 30
0.0
 10
55.439932
 20
39.003817
 30
0.0
 10
55.439848
 20
39.087622
 30
0.0
  0
SPLINE
  5
1c0
100
AcDbEntity
  8
0
 62
7
100
AcDbSpline
 70
8
 71
3
 72
8
 73
4
 74
0
 40
0
 40
0
 40
0
 40
0
 40
1
 40
1
 40
1
 40
1
 10
55.439848
 20
39.087622
 30
0.0
 10
55.439369
 20
39.477585
 30
0.0
 10
53.154878
 20
42.087742
 30
0.0
 10
52.048450
 20
42.962325
 30
0.0
  0
SPLINE
  5
1c1
100
AcDbEntity
  8
0
 62
7
100
AcDbSpline
 70
8
 71
3
 72
8
 73
4
 74
0
 40
0
 40
0
 40
0
 40
0
 40
1
 40
1
 40
1
 40
1
 10
52.048450
 20
42.962325
 30
0.0
 10
49.080917
 20
45.308025
 30
0.0
 10
46.412990
 20
46.317165
 30
0.0
 10
42.696667
 20
46.499625
 30
0.0
  0
SPLINE
  5
1c2
100
AcDbEntity
  8
0
 62
7
100
AcDbSpline
 70
8
 71
3
 72
8
 73
4
 74
0
 40
0
 40
0
 40
0
 40
0
 40
1
 40
1
 40
1
 40
1
 10
42.696667
 20
46.499625
 30
0.0
 10
39.516708
 20
46.655752
 30
0.0
 10
37.239744
 20
46.192447
 30
0.0
 10
34.535776
 20
44.839065
 30
0.0
  0
SPLINE
  5
1c3
100
AcDbEntity
  8
0
 62
7
100
AcDbSpline
 70
8
 71
3
 72
8
 73
4
 74
0
 40
0
 40
0
 40
0
 40
0
 40
1
 40
1
 40
1
 40
1
 10
34.535776
 20
44.839065
 30
0.0
 10
32.535946
 20
43.838122
 30
0.0
 10
30.030028
 20
41.728102
 30
0.0
 10
28.747438
 20
39.965197
 30
0.0
  0
LWPOLYLINE
  5
1c4
100
AcDbEntity
  8
0
 62
7
100
AcDbPolyline
 90
3
 70
0
 10
51.307198
 20
39.906255
 30
0.0
 10
53.054396
 20
38.154960
 30
0.0
 10
54.247198
 20
38.545102
 30
0.0
  0
SPLINE
  5
1c5
100
AcDbEntity
  8
0
 62
7
100
AcDbSpline
 70
8
 71
3
 72
8
 73
4
 74
0
 40
0
 40
0
 40
0
 40
0
 40
1
 40
1
 40
1
 40
1
 10
29.206387
 20
38.603797
 30
0.0
 10
29.840875
 20
38.380170
 30
0.0
 10
30.392212
 20
38.188830
 30
0.0
 10
30.431584
 20
38.178600
 30
0.0
  0
SPLINE
  5
1c6
100
AcDbEntity
  8
0
 62
7
100
AcDbSpline
 70
8
 71
3
 72
8
 73
4
 74
0
 40
0
 40
0
 40
0
 40
0
 40
1
 40
1
 40
1
 40
1
 10
30.431584
 20
38.178600
 30
0.0
 10
30.470959
 20
38.168400
 30
0.0
 10
31.226956
 20
38.890545
 30
0.0
 10
32.111584
 20
39.783442
 30
0.0
  0
LWPOLYLINE
  5
1c7
100
AcDbEntity
  8
0
 62
7
100
AcDbPolyline
 90
3
 70
0
 10
28.747438
 20
39.965197
 30
0.0
 10
28.052774
 20
39.010395
 30
0.0
 10
29.206387
 20
38.603797
 30
0.0
  0
SPLINE
  5
1c8
100
AcDbEntity
  8
0
 62
7
100
AcDbSpline
 70
8
 71
3
 72
8
 73
4
 74
0
 40
0
 40
0
 40
0
 40
0
 40
1
 40
1
 40
1
 40
1
 10
68.111585
 20
39.783443
 30
0.0
 10
73.549930
 20
45.272595
 30
0.0
 10
81.893093
 20
45.331762
 30
0.0
 10
87.327278
 20
39.919710
 30
0.0
  0
LWPOLYLINE
  5
1c9
100
AcDbEntity
  8
0
 62
7
100
AcDbPolyline
 90
1
 70
1
 10
32.111584
 20
39.783442
 30
0.0
  0
SPLINE
  5
1ca
100
AcDbEntity
  8
0
 62
7
100
AcDbSpline
 70
8
 71
3
 72
8
 73
4
 74
0
 40
0
 40
0
 40
0
 40
0
 40
1
 40
1
 40
1
 40
1
 10
90.267278
 20
38.576153
 30
0.0
 10
90.912278
 20
38.805233
 30
0.0
 10
91.440000
 20
39.074138
 30
0.0
 10
91.440000
 20
39.173715
 30
0.0
  0
SPLINE
  5
1cb
100
AcDbEntity
  8
0
 62
7
100
AcDbSpline
 70
8
 71
3
 72
8
 73
4
 74
0
 40
0
 40
0
 40
0
 40
0
 40
1
 40
1
 40
1
 40
1
 10
91.440000
 20
39.173715
 30
0.0
 10
91.440000
 20
39.658710
 30
0.0
 10
88.698210
 20
42.501008
 30
0.0
 10
87.173483
 20
43.596630
 30
0.0
  0
SPLINE
  5
1cc
100
AcDbEntity
  8
0
 62
7
100
AcDbSpline
 70
8
 71
3
 72
8
 73
4
 74
0
 40
0
 40
0
 40
0
 40
0
 40
1
 40
1
 40
1
 40
1
 10
87.173483
 20
43.596630
 30
0.0
 10
84.354330
 20
45.622373
 30
0.0
 10
81.450053
 20
46.544475
 30
0.0
 10
77.858393
 20
46.554135
 30
0.0
  0
SPLINE
  5
1cd
100
AcDbEntity
  8
0
 62
7
100
AcDbSpline
 70
8
 71
3
 72
8
 73
4
 74
0
 40
0
 40
0
 40
0
 40
0
 40
1
 40
1
 40
1
 40
1
 10
77.858393
 20
46.554135
 30
0.0
 10
72.793018
 20
46.567785
 30
0.0
 10
67.960174
 20
44.199488
 30
0.0
 10
64.958830
 20
40.232880
 30
0.0
  0
LWPOLYLINE
  5
1ce
100
AcDbEntity
  8
0
 62
7
100
AcDbPolyline
 90
3
 70
0
 10
87.327278
 20
39.919710
 30
0.0
 10
89.094555
 20
38.159640
 30
0.0
 10
90.267278
 20
38.576153
 30
0.0
  0
SPLINE
  5
1cf
100
AcDbEntity
  8
0
 62
7
100
AcDbSpline
 70
8
 71
3
 72
8
 73
4
 74
0
 40
0
 40
0
 40
0
 40
0
 40
1
 40
1
 40
1
 40
1
 10
65.198830
 20
38.606325
 30
0.0
 10
65.837474
 20
38.381310
 30
0.0
 10
66.392213
 20
38.188830
 30
0.0
 10
66.431585
 20
38.178600
 30
0.0
  0
SPLINE
  5
1d0
100
AcDbEntity
  8
0
 62
7
100
AcDbSpline
 70
8
 71
3
 72
8
 73
4
 74
0
 40
0
 40
0
 40
0
 40
0
 40
1
 40
1
 40
1
 40
1
 10
66.431585
 20
38.178600
 30
0.0
 10
66.470960
 20
38.168400
 30
0.0
 10
67.226957
 20
38.890545
 30
0.0
 10
68.111585
 20
39.783443
 30
0.0
  0
LWPOLYLINE
  5
1d1
100
AcDbEntity
  8
0
 62
7
100
AcDbPolyline
 90
3
 70
0
 10
64.958830
 20
40.232880
 30
0.0
 10
64.037660
 20
39.015450
 30
0.0
 10
65.198830
 20
38.606325
 30
0.0
  0
SPLINE
  5
1d2
100
AcDbEntity
  8
0
 62
7
100
AcDbSpline
 70
8
 71
3
 72
8
 73
4
 74
0
 40
0
 40
0
 40
0
 40
0
 40
1
 40
1
 40
1
 40
1
 10
104.127938
 20
39.783225
 30
0.0
 10
106.524638
 20
42.226830
 30
0.0
 10
110.165490
 20
43.904850
 30
0.0
 10
113.095957
 20
43.916452
 30
0.0
  0
SPLINE
  5
1d3
100
AcDbEntity
  8
0
 62
7
100
AcDbSpline
 70
8
 71
3
 72
8
 73
4
 74
0
 40
0
 40
0
 40
0
 40
0
 40
1
 40
1
 40
1
 40
1
 10
113.095957
 20
43.916452
 30
0.0
 10
113.928022
 20
43.919453
 30
0.0
 10
114.034987
 20
44.004998
 30
0.0
 10
114.595957
 20
45.112020
 30
0.0
  0
SPLINE
  5
1d4
100
AcDbEntity
  8
0
 62
7
100
AcDbSpline
 70
8
 71
3
 72
8
 73
4
 74
0
 40
0
 40
0
 40
0
 40
0
 40
1
 40
1
 40
1
 40
1
 10
114.595957
 20
45.112020
 30
0.0
 10
114.928178
 20
45.767632
 30
0.0
 10
115.200000
 20
46.361632
 30
0.0
 10
115.200000
 20
46.432020
 30
0.0
  0
SPLINE
  5
1d5
100
AcDbEntity
  8
0
 62
7
100
AcDbSpline
 70
8
 71
3
 72
8
 73
4
 74
0
 40
0
 40
0
 40
0
 40
0
 40
1
 40
1
 40
1
 40
1
 10
115.200000
 20
46.432020
 30
0.0
 10
115.200000
 20
46.502370
 30
0.0
 10
114.407272
 20
46.560000
 30
0.0
 10
113.438393
 20
46.560000
 30
0.0
  0
SPLINE
  5
1d6
100
AcDbEntity
  8
0
 62
7
100
AcDbSpline
 70
8
 71
3
 72
8
 73
4
 74
0
 40
0
 40
0
 40
0
 40
0
 40
1
 40
1
 40
1
 40
1
 10
113.438393
 20
46.560000
 30
0.0
 10
108.833130
 20
46.560000
 30
0.0
 10
103.880497
 20
44.102722
 30
0.0
 10
101.119268
 20
40.447793
 30
0.0
  0
LWPOLYLINE
  5
1d7
100
AcDbEntity
  8
0
 62
7
100
AcDbPolyline
 90
1
 70
1
 10
68.111585
 20
39.783443
 30
0.0
  0
SPLINE
  5
1d8
100
AcDbEntity
  8
0
 62
7
100
AcDbSpline
 70
8
 71
3
 72
8
 73
4
 74
0
 40
0
 40
0
 40
0
 40
0
 40
1
 40
1
 40
1
 40
1
 10
101.198633
 20
38.606392
 30
0.0
 10
101.837385
 20
38.381340
 30
0.0
 10
102.399570
 20
38.188830
 30
0.0
 10
102.447937
 20
38.178600
 30
0.0
  0
SPLINE
  5
1d9
100
AcDbEntity
  8
0
 62
7
100
AcDbSpline
 70
8
 71
3
 72
8
 73
4
 74
0
 40
0
 40
0
 40
0
 40
0
 40
1
 40
1
 40
1
 40
1
 10
102.447937
 20
38.178600
 30
0.0
 10
102.496313
 20
38.168400
 30
0.0
 10
103.252305
 20
38.890447
 30
0.0
 10
104.127938
 20
39.783225
 30
0.0
  0
LWPOLYLINE
  5
1da
100
AcDbEntity
  8
0
 62
7
100
AcDbPolyline
 90
3
 70
0
 10
101.119268
 20
40.447793
 30
0.0
 10
100.037265
 20
39.015585
 30
0.0
 10
101.198633
 20
38.606392
 30
0.0
  0
SPLINE
  5
1db
100
AcDbEntity
  8
0
 62
7
100
AcDbSpline
 70
8
 71
3
 72
8
 73
4
 74
0
 40
0
 40
0
 40
0
 40
0
 40
1
 40
1
 40
1
 40
1
 10
26.949912
 20
40.620000
 30
0.0
 10
27.428244
 20
41.313000
 30
0.0
 10
28.472194
 20
42.524618
 30
0.0
 10
29.269802
 20
43.312485
 30
0.0
  0
SPLINE
  5
1dc
100
AcDbEntity
  8
0
 62
7
100
AcDbSpline
 70
8
 71
3
 72
8
 73
4
 74
0
 40
0
 40
0
 40
0
 40
0
 40
1
 40
1
 40
1
 40
1
 10
29.269802
 20
43.312485
 30
0.0
 10
30.067412
 20
44.100352
 30
0.0
 10
30.720000
 20
44.886945
 30
0.0
 10
30.720000
 20
45.060465
 30
0.0
  0
SPLINE
  5
1dd
100
AcDbEntity
  8
0
 62
7
100
AcDbSpline
 70
8
 71
3
 72
8
 73
4
 74
0
 40
0
 40
0
 40
0
 40
0
 40
1
 40
1
 40
1
 40
1
 10
30.720000
 20
45.060465
 30
0.0
 10
30.720000
 20
45.729000
 30
0.0
 10
29.514520
 20
47.709097
 30
0.0
 10
28.610042
 20
48.526238
 30
0.0
  0
SPLINE
  5
1de
100
AcDbEntity
  8
0
 62
7
100
AcDbSpline
 70
8
 71
3
 72
8
 73
4
 74
0
 40
0
 40
0
 40
0
 40
0
 40
1
 40
1
 40
1
 40
1
 10
28.610042
 20
48.526238
 30
0.0
 10
27.481874
 20
49.545473
 30
0.0
 10
25.340496
 20
50.400000
 30
0.0
 10
23.914557
 20
50.400000
 30
0.0
  0
SPLINE
  5
1df
100
AcDbEntity
  8
0
 62
7
100
AcDbSpline
 70
8
 71
3
 72
8
 73
4
 74
0
 40
0
 40
0
 40
0
 40
0
 40
1
 40
1
 40
1
 40
1
 10
23.914557
 20
50.400000
 30
0.0
 10
21.423755
 20
50.400000
 30
0.0
 10
18.970333
 20
49.053728
 30
0.0
 10
17.706983
 20
46.993710
 30
0.0
  0
LWPOLYLINE
  5
1e0
100
AcDbEntity
  8
0
 62
7
100
AcDbPolyline
 90
1
 70
1
 10
104.127938
 20
39.783225
 30
0.0
  0
SPLINE
  5
1e1
100
AcDbEntity
  8
0
 62
7
100
AcDbSpline
 70
8
 71
3
 72
8
 73
4
 74
0
 40
0
 40
0
 40
0
 40
0
 40
1
 40
1
 40
1
 40
1
 10
17.507378
 20
44.904743
 30
0.0
 10
17.777492
 20
44.375273
 30
0.0
 10
18.754834
 20
42.999398
 30
0.0
 10
19.679248
 20
41.847240
 30
0.0
  0
SPLINE
  5
1e2
100
AcDbEntity
  8
0
 62
7
100
AcDbSpline
 70
8
 71
3
 72
8
 73
4
 74
0
 40
0
 40
0
 40
0
 40
0
 40
1
 40
1
 40
1
 40
1
 10
19.679248
 20
41.847240
 30
0.0
 10
20.603661
 20
40.695090
 30
0.0
 10
21.360000
 20
39.664118
 30
0.0
 10
21.360000
 20
39.556207
 30
0.0
  0
SPLINE
  5
1e3
100
AcDbEntity
  8
0
 62
7
100
AcDbSpline
 70
8
 71
3
 72
8
 73
4
 74
0
 40
0
 40
0
 40
0
 40
0
 40
1
 40
1
 40
1
 40
1
 10
21.360000
 20
39.556207
 30
0.0
 10
21.360000
 20
39.448290
 30
0.0
 10
22.422049
 20
39.360000
 30
0.0
 10
23.720107
 20
39.360000
 30
0.0
  0
LWPOLYLINE
  5
1e4
100
AcDbEntity
  8
0
 62
7
100
AcDbPolyline
 90
3
 70
0
 10
17.706983
 20
46.993710
 30
0.0
 10
17.016260
 20
45.867413
 30
0.0
 10
17.507378
 20
44.904743
 30
0.0
  0
SPLINE
  5
1e5
100
AcDbEntity
  8
0
 62
7
100
AcDbSpline
 70
8
 71
3
 72
8
 73
4
 74
0
 40
0
 40
0
 40
0
 40
0
 40
1
 40
1
 40
1
 40
1
 10
63.066298
 20
40.740000
 30
0.0
 10
63.603012
 20
41.499000
 30
0.0
 10
64.644660
 20
42.710310
 30
0.0
 10
65.381072
 20
43.431803
 30
0.0
  0
SPLINE
  5
1e6
100
AcDbEntity
  8
0
 62
7
100
AcDbSpline
 70
8
 71
3
 72
8
 73
4
 74
0
 40
0
 40
0
 40
0
 40
0
 40
1
 40
1
 40
1
 40
1
 10
65.381072
 20
43.431803
 30
0.0
 10
66.117482
 20
44.153295
 30
0.0
 10
66.720000
 20
44.886592
 30
0.0
 10
66.720000
 20
45.061365
 30
0.0
  0
SPLINE
  5
1e7
100
AcDbEntity
  8
0
 62
7
100
AcDbSpline
 70
8
 71
3
 72
8
 73
4
 74
0
 40
0
 40
0
 40
0
 40
0
 40
1
 40
1
 40
1
 40
1
 10
66.720000
 20
45.061365
 30
0.0
 10
66.720000
 20
45.236130
 30
0.0
 10
66.492358
 20
45.833820
 30
0.0
 10
66.214128
 20
46.389562
 30
0.0
  0
SPLINE
  5
1e8
100
AcDbEntity
  8
0
 62
7
100
AcDbSpline
 70
8
 71
3
 72
8
 73
4
 74
0
 40
0
 40
0
 40
0
 40
0
 40
1
 40
1
 40
1
 40
1
 10
66.214128
 20
46.389562
 30
0.0
 10
64.276877
 20
50.259067
 30
0.0
 10
59.418708
 20
51.547057
 30
0.0
 10
55.800444
 20
49.150425
 30
0.0
  0
SPLINE
  5
1e9
100
AcDbEntity
  8
0
 62
7
100
AcDbSpline
 70
8
 71
3
 72
8
 73
4
 74
0
 40
0
 40
0
 40
0
 40
0
 40
1
 40
1
 40
1
 40
1
 10
55.800444
 20
49.150425
 30
0.0
 10
54.683984
 20
48.410910
 30
0.0
 10
53.610146
 20
47.048857
 30
0.0
 10
53.060230
 20
45.674737
 30
0.0
  0
SPLINE
  5
1ea
100
AcDbEntity
  8
0
 62
7
100
AcDbSpline
 70
8
 71
3
 72
8
 73
4
 74
0
 40
0
 40
0
 40
0
 40
0
 40
1
 40
1
 40
1
 40
1
 10
53.060230
 20
45.674737
 30
0.0
 10
52.756015
 20
44.914575
 30
0.0
 10
52.765020
 20
44.898427
 30
0.0
 10
54.411250
 20
43.252200
 30
0.0
  0
SPLINE
  5
1eb
100
AcDbEntity
  8
0
 62
7
100
AcDbSpline
 70
8
 71
3
 72
8
 73
4
 74
0
 40
0
 40
0
 40
0
 40
0
 40
1
 40
1
 40
1
 40
1
 10
54.411250
 20
43.252200
 30
0.0
 10
55.322750
 20
42.340702
 30
0.0
 10
56.386106
 20
41.092260
 30
0.0
 10
56.774261
 20
40.477890
 30
0.0
  0
LWPOLYLINE
  5
1ec
100
AcDbEntity
  8
0
 62
7
100
AcDbPolyline
 90
3
 70
0
 10
23.720107
 20
39.360000
 30
0.0
 10
26.080214
 20
39.360000
 30
0.0
 10
26.949912
 20
40.620000
 30
0.0
  0
SPLINE
  5
1ed
100
AcDbEntity
  8
0
 62
7
100
AcDbSpline
 70
8
 71
3
 72
8
 73
4
 74
0
 40
0
 40
0
 40
0
 40
0
 40
1
 40
1
 40
1
 40
1
 10
98.950433
 20
40.620765
 30
0.0
 10
99.428483
 20
41.313345
 30
0.0
 10
100.472190
 20
42.524618
 30
0.0
 10
101.269800
 20
43.312485
 30
0.0
  0
SPLINE
  5
1ee
100
AcDbEntity
  8
0
 62
7
100
AcDbSpline
 70
8
 71
3
 72
8
 73
4
 74
0
 40
0
 40
0
 40
0
 40
0
 40
1
 40
1
 40
1
 40
1
 10
101.269800
 20
43.312485
 30
0.0
 10
102.067410
 20
44.100352
 30
0.0
 10
102.720000
 20
44.886945
 30
0.0
 10
102.720000
 20
45.060465
 30
0.0
  0
SPLINE
  5
1ef
100
AcDbEntity
  8
0
 62
7
100
AcDbSpline
 70
8
 71
3
 72
8
 73
4
 74
0
 40
0
 40
0
 40
0
 40
0
 40
1
 40
1
 40
1
 40
1
 10
102.720000
 20
45.060465
 30
0.0
 10
102.720000
 20
45.660232
 30
0.0
 10
101.559945
 20
47.642790
 30
0.0
 10
100.761427
 20
48.407708
 30
0.0
  0
SPLINE
  5
1f0
100
AcDbEntity
  8
0
 62
7
100
AcDbSpline
 70
8
 71
3
 72
8
 73
4
 74
0
 40
0
 40
0
 40
0
 40
0
 40
1
 40
1
 40
1
 40
1
 10
100.761427
 20
48.407708
 30
0.0
 10
99.019432
 20
50.076397
 30
0.0
 10
95.881462
 20
50.813610
 30
0.0
 10
93.693667
 20
50.068155
 30
0.0
  0
SPLINE
  5
1f1
100
AcDbEntity
  8
0
 62
7
100
AcDbSpline
 70
8
 71
3
 72
8
 73
4
 74
0
 40
0
 40
0
 40
0
 40
0
 40
1
 40
1
 40
1
 40
1
 10
93.693667
 20
50.068155
 30
0.0
 10
91.477935
 20
49.313183
 30
0.0
 10
89.577885
 20
47.475503
 30
0.0
 10
89.027002
 20
45.554670
 30
0.0
  0
SPLINE
  5
1f2
100
AcDbEntity
  8
0
 62
7
100
AcDbSpline
 70
8
 71
3
 72
8
 73
4
 74
0
 40
0
 40
0
 40
0
 40
0
 40
1
 40
1
 40
1
 40
1
 10
89.027002
 20
45.554670
 30
0.0
 10
88.826977
 20
44.857230
 30
0.0
 10
88.908690
 20
44.721660
 30
0.0
 10
90.470250
 20
43.160093
 30
0.0
  0
SPLINE
  5
1f3
100
AcDbEntity
  8
0
 62
7
100
AcDbSpline
 70
8
 71
3
 72
8
 73
4
 74
0
 40
0
 40
0
 40
0
 40
0
 40
1
 40
1
 40
1
 40
1
 10
90.470250
 20
43.160093
 30
0.0
 10
91.380660
 20
42.249690
 30
0.0
 10
92.425305
 20
41.030978
 30
0.0
 10
92.791687
 20
40.451843
 30
0.0
  0
LWPOLYLINE
  5
1f4
100
AcDbEntity
  8
0
 62
7
100
AcDbPolyline
 90
6
 70
0
 10
56.774261
 20
40.477890
 30
0.0
 10
57.480000
 20
39.360862
 30
0.0
 10
59.785226
 20
39.360383
 30
0.0
 10
62.090452
 20
39.359902
 30
0.0
 10
63.066298
 20
40.739902
 30
0.0
 10
63.066298
 20
40.740000
 30
0.0
  0
SPLINE
  5
1f5
100
AcDbEntity
  8
0
 62
7
100
AcDbSpline
 70
8
 71
3
 72
8
 73
4
 74
0
 40
0
 40
0
 40
0
 40
0
 40
1
 40
1
 40
1
 40
1
 10
34.663567
 20
47.590545
 30
0.0
 10
34.316340
 20
48.724762
 30
0.0
 10
32.342376
 20
51.346087
 30
0.0
 10
31.132712
 20
52.279335
 30
0.0
  0
SPLINE
  5
1f6
100
AcDbEntity
  8
0
 62
7
100
AcDbSpline
 70
8
 71
3
 72
8
 73
4
 74
0
 40
0
 40
0
 40
0
 40
0
 40
1
 40
1
 40
1
 40
1
 10
31.132712
 20
52.279335
 30
0.0
 10
26.548068
 20
55.816358
 30
0.0
 10
20.393522
 20
55.721145
 30
0.0
 10
16.221344
 20
52.048650
 30
0.0
  0
SPLINE
  5
1f7
100
AcDbEntity
  8
0
 62
7
100
AcDbSpline
 70
8
 71
3
 72
8
 73
4
 74
0
 40
0
 40
0
 40
0
 40
0
 40
1
 40
1
 40
1
 40
1
 10
16.221344
 20
52.048650
 30
0.0
 10
14.973888
 20
50.950590
 30
0.0
 10
14.937398
 20
50.730022
 30
0.0
 10
15.702502
 20
48.912330
 30
0.0
  0
LWPOLYLINE
  5
1f8
100
AcDbEntity
  8
0
 62
7
100
AcDbPolyline
 90
6
 70
0
 10
92.791687
 20
40.451843
 30
0.0
 10
93.457845
 20
39.398880
 30
0.0
 10
95.769555
 20
39.380205
 30
0.0
 10
98.081265
 20
39.361530
 30
0.0
 10
98.950433
 20
40.620773
 30
0.0
 10
98.950433
 20
40.620765
 30
0.0
  0
SPLINE
  5
1f9
100
AcDbEntity
  8
0
 62
7
100
AcDbSpline
 70
8
 71
3
 72
8
 73
4
 74
0
 40
0
 40
0
 40
0
 40
0
 40
1
 40
1
 40
1
 40
1
 10
17.311795
 20
49.331175
 30
0.0
 10
19.447970
 20
51.589867
 30
0.0
 10
22.358344
 20
52.593833
 30
0.0
 10
25.255622
 20
52.071488
 30
0.0
  0
SPLINE
  5
1fa
100
AcDbEntity
  8
0
 62
7
100
AcDbSpline
 70
8
 71
3
 72
8
 73
4
 74
0
 40
0
 40
0
 40
0
 40
0
 40
1
 40
1
 40
1
 40
1
 10
25.255622
 20
52.071488
 30
0.0
 10
28.227782
 20
51.535650
 30
0.0
 10
30.780521
 20
49.612687
 30
0.0
 10
31.947502
 20
47.030550
 30
0.0
  0
LWPOLYLINE
  5
1fb
100
AcDbEntity
  8
0
 62
7
100
AcDbPolyline
 90
3
 70
0
 10
15.702502
 20
48.912330
 30
0.0
 10
16.076141
 20
48.024653
 30
0.0
 10
17.311795
 20
49.331175
 30
0.0
  0
SPLINE
  5
1fc
100
AcDbEntity
  8
0
 62
7
100
AcDbSpline
 70
8
 71
3
 72
8
 73
4
 74
0
 40
0
 40
0
 40
0
 40
0
 40
1
 40
1
 40
1
 40
1
 10
33.649124
 20
46.464893
 30
0.0
 10
34.657956
 20
46.976107
 30
0.0
 10
34.802552
 20
47.136555
 30
0.0
 10
34.663568
 20
47.590545
 30
0.0
  0
LWPOLYLINE
  5
1fd
100
AcDbEntity
  8
0
 62
7
100
AcDbPolyline
 90
3
 70
0
 10
31.947502
 20
47.030550
 30
0.0
 10
32.472593
 20
45.868702
 30
0.0
 10
33.649124
 20
46.464893
 30
0.0
  0
SPLINE
  5
1fe
100
AcDbEntity
  8
0
 62
7
100
AcDbSpline
 70
8
 71
3
 72
8
 73
4
 74
0
 40
0
 40
0
 40
0
 40
0
 40
1
 40
1
 40
1
 40
1
 10
51.753384
 20
47.163758
 30
0.0
 10
52.525414
 20
48.740445
 30
0.0
 10
54.536696
 20
50.719740
 30
0.0
 10
56.044652
 20
51.386782
 30
0.0
  0
SPLINE
  5
1ff
100
AcDbEntity
  8
0
 62
7
100
AcDbSpline
 70
8
 71
3
 72
8
 73
4
 74
0
 40
0
 40
0
 40
0
 40
0
 40
1
 40
1
 40
1
 40
1
 10
56.044652
 20
51.386782
 30
0.0
 10
60.461906
 20
53.340750
 30
0.0
 10
65.531558
 20
51.614055
 30
0.0
 10
67.709232
 20
47.413905
 30
0.0
  0
LWPOLYLINE
  5
200
100
AcDbEntity
  8
0
 62
7
100
AcDbPolyline
 90
1
 70
1
 10
34.663568
 20
47.590545
 30
0.0
  0
SPLINE
  5
201
100
AcDbEntity
  8
0
 62
7
100
AcDbSpline
 70
8
 71
3
 72
8
 73
4
 74
0
 40
0
 40
0
 40
0
 40
0
 40
1
 40
1
 40
1
 40
1
 10
69.651262
 20
46.465973
 30
0.0
 10
70.283066
 20
46.786140
 30
0.0
 10
70.800000
 20
47.112150
 30
0.0
 10
70.800000
 20
47.190450
 30
0.0
  0
SPLINE
  5
202
100
AcDbEntity
  8
0
 62
7
100
AcDbSpline
 70
8
 71
3
 72
8
 73
4
 74
0
 40
0
 40
0
 40
0
 40
0
 40
1
 40
1
 40
1
 40
1
 10
70.800000
 20
47.190450
 30
0.0
 10
70.800000
 20
47.268750
 30
0.0
 10
70.449000
 20
47.992897
 30
0.0
 10
70.020000
 20
48.799672
 30
0.0
  0
SPLINE
  5
203
100
AcDbEntity
  8
0
 62
7
100
AcDbSpline
 70
8
 71
3
 72
8
 73
4
 74
0
 40
0
 40
0
 40
0
 40
0
 40
1
 40
1
 40
1
 40
1
 10
70.020000
 20
48.799672
 30
0.0
 10
67.157892
 20
54.182122
 30
0.0
 10
60.337752
 20
56.378347
 30
0.0
 10
54.747120
 20
53.717850
 30
0.0
  0
SPLINE
  5
204
100
AcDbEntity
  8
0
 62
7
100
AcDbSpline
 70
8
 71
3
 72
8
 73
4
 74
0
 40
0
 40
0
 40
0
 40
0
 40
1
 40
1
 40
1
 40
1
 10
54.747120
 20
53.717850
 30
0.0
 10
52.779653
 20
52.781565
 30
0.0
 10
50.300330
 20
50.355292
 30
0.0
 10
49.397902
 20
48.483097
 30
0.0
  0
LWPOLYLINE
  5
205
100
AcDbEntity
  8
0
 62
7
100
AcDbPolyline
 90
3
 70
0
 10
67.709232
 20
47.413905
 30
0.0
 10
68.502521
 20
45.883868
 30
0.0
 10
69.651262
 20
46.465973
 30
0.0
  0
SPLINE
  5
206
100
AcDbEntity
  8
0
 62
7
100
AcDbSpline
 70
8
 71
3
 72
8
 73
4
 74
0
 40
0
 40
0
 40
0
 40
0
 40
1
 40
1
 40
1
 40
1
 10
49.881566
 20
46.528867
 30
0.0
 10
50.496706
 20
46.178332
 30
0.0
 10
51.023672
 20
45.879937
 30
0.0
 10
51.052604
 20
45.865770
 30
0.0
  0
SPLINE
  5
207
100
AcDbEntity
  8
0
 62
7
100
AcDbSpline
 70
8
 71
3
 72
8
 73
4
 74
0
 40
0
 40
0
 40
0
 40
0
 40
1
 40
1
 40
1
 40
1
 10
51.052604
 20
45.865770
 30
0.0
 10
51.081531
 20
45.851595
 30
0.0
 10
51.396886
 20
46.435688
 30
0.0
 10
51.753384
 20
47.163758
 30
0.0
  0
LWPOLYLINE
  5
208
100
AcDbEntity
  8
0
 62
7
100
AcDbPolyline
 90
3
 70
0
 10
49.397902
 20
48.483097
 30
0.0
 10
48.763136
 20
47.166202
 30
0.0
 10
49.881566
 20
46.528867
 30
0.0
  0
SPLINE
  5
209
100
AcDbEntity
  8
0
 62
7
100
AcDbSpline
 70
8
 71
3
 72
8
 73
4
 74
0
 40
0
 40
0
 40
0
 40
0
 40
1
 40
1
 40
1
 40
1
 10
87.727238
 20
47.153332
 30
0.0
 10
89.463315
 20
50.701740
 30
0.0
 10
93.447180
 20
52.760535
 30
0.0
 10
97.244880
 20
52.071877
 30
0.0
  0
SPLINE
  5
20a
100
AcDbEntity
  8
0
 62
7
100
AcDbSpline
 70
8
 71
3
 72
8
 73
4
 74
0
 40
0
 40
0
 40
0
 40
0
 40
1
 40
1
 40
1
 40
1
 10
97.244880
 20
52.071877
 30
0.0
 10
100.157415
 20
51.543735
 30
0.0
 10
102.710295
 20
49.634167
 30
0.0
 10
103.894688
 20
47.097780
 30
0.0
  0
LWPOLYLINE
  5
20b
100
AcDbEntity
  8
0
 62
7
100
AcDbPolyline
 90
1
 70
1
 10
51.753384
 20
47.163758
 30
0.0
  0
SPLINE
  5
20c
100
AcDbEntity
  8
0
 62
7
100
AcDbSpline
 70
8
 71
3
 72
8
 73
4
 74
0
 40
0
 40
0
 40
0
 40
0
 40
1
 40
1
 40
1
 40
1
 10
105.634688
 20
46.457595
 30
0.0
 10
106.275608
 20
46.782375
 30
0.0
 10
106.800000
 20
47.112165
 30
0.0
 10
106.800000
 20
47.190465
 30
0.0
  0
SPLINE
  5
20d
100
AcDbEntity
  8
0
 62
7
100
AcDbSpline
 70
8
 71
3
 72
8
 73
4
 74
0
 40
0
 40
0
 40
0
 40
0
 40
1
 40
1
 40
1
 40
1
 10
106.800000
 20
47.190465
 30
0.0
 10
106.800000
 20
47.268765
 30
0.0
 10
106.449000
 20
47.992912
 30
0.0
 10
106.020000
 20
48.799687
 30
0.0
  0
SPLINE
  5
20e
100
AcDbEntity
  8
0
 62
7
100
AcDbSpline
 70
8
 71
3
 72
8
 73
4
 74
0
 40
0
 40
0
 40
0
 40
0
 40
1
 40
1
 40
1
 40
1
 10
106.020000
 20
48.799687
 30
0.0
 10
104.924730
 20
50.859442
 30
0.0
 10
103.022828
 20
52.681312
 30
0.0
 10
100.947533
 20
53.658697
 30
0.0
  0
SPLINE
  5
20f
100
AcDbEntity
  8
0
 62
7
100
AcDbSpline
 70
8
 71
3
 72
8
 73
4
 74
0
 40
0
 40
0
 40
0
 40
0
 40
1
 40
1
 40
1
 40
1
 10
100.947533
 20
53.658697
 30
0.0
 10
96.144968
 20
55.920525
 30
0.0
 10
90.839490
 20
54.943327
 30
0.0
 10
87.283808
 20
51.142020
 30
0.0
  0
SPLINE
  5
210
100
AcDbEntity
  8
0
 62
7
100
AcDbSpline
 70
8
 71
3
 72
8
 73
4
 74
0
 40
0
 40
0
 40
0
 40
0
 40
1
 40
1
 40
1
 40
1
 10
87.283808
 20
51.142020
 30
0.0
 10
86.231760
 20
50.017297
 30
0.0
 10
84.951075
 20
47.852107
 30
0.0
 10
84.968700
 20
47.227995
 30
0.0
  0
SPLINE
  5
211
100
AcDbEntity
  8
0
 62
7
100
AcDbSpline
 70
8
 71
3
 72
8
 73
4
 74
0
 40
0
 40
0
 40
0
 40
0
 40
1
 40
1
 40
1
 40
1
 10
84.968700
 20
47.227995
 30
0.0
 10
84.973200
 20
47.058607
 30
0.0
 10
85.432478
 20
46.692352
 30
0.0
 10
85.988700
 20
46.414110
 30
0.0
  0
SPLINE
  5
212
100
AcDbEntity
  8
0
 62
7
100
AcDbSpline
 70
8
 71
3
 72
8
 73
4
 74
0
 40
0
 40
0
 40
0
 40
0
 40
1
 40
1
 40
1
 40
1
 10
85.988700
 20
46.414110
 30
0.0
 10
86.544915
 20
46.135852
 30
0.0
 10
87.019058
 20
45.892852
 30
0.0
 10
87.042345
 20
45.874110
 30
0.0
  0
SPLINE
  5
213
100
AcDbEntity
  8
0
 62
7
100
AcDbSpline
 70
8
 71
3
 72
8
 73
4
 74
0
 40
0
 40
0
 40
0
 40
0
 40
1
 40
1
 40
1
 40
1
 10
87.042345
 20
45.874110
 30
0.0
 10
87.065670
 20
45.855360
 30
0.0
 10
87.373838
 20
46.431007
 30
0.0
 10
87.727238
 20
47.153325
 30
0.0
  0
LWPOLYLINE
  5
214
100
AcDbEntity
  8
0
 62
7
100
AcDbPolyline
 90
3
 70
0
 10
103.894688
 20
47.097780
 30
0.0
 10
104.469375
 20
45.867082
 30
0.0
 10
105.634688
 20
46.457595
 30
0.0
  0
SPLINE
  5
215
100
AcDbEntity
  8
0
 62
7
100
AcDbSpline
 70
8
 71
3
 72
8
 73
4
 74
0
 40
0
 40
0
 40
0
 40
0
 40
1
 40
1
 40
1
 40
1
 10
38.060326
 20
48.030157
 30
0.0
 10
39.317768
 20
48.346785
 30
0.0
 10
39.316598
 20
48.379568
 30
0.0
 10
37.954342
 20
51.000000
 30
0.0
  0
SPLINE
  5
216
100
AcDbEntity
  8
0
 62
7
100
AcDbSpline
 70
8
 71
3
 72
8
 73
4
 74
0
 40
0
 40
0
 40
0
 40
0
 40
1
 40
1
 40
1
 40
1
 10
37.954342
 20
51.000000
 30
0.0
 10
36.644966
 20
53.518710
 30
0.0
 10
33.787183
 20
56.289547
 30
0.0
 10
31.184356
 20
57.564012
 30
0.0
  0
SPLINE
  5
217
100
AcDbEntity
  8
0
 62
7
100
AcDbSpline
 70
8
 71
3
 72
8
 73
4
 74
0
 40
0
 40
0
 40
0
 40
0
 40
1
 40
1
 40
1
 40
1
 10
31.184356
 20
57.564012
 30
0.0
 10
30.070960
 20
58.109182
 30
0.0
 10
28.512000
 20
58.724424
 30
0.0
 10
27.720000
 20
58.931218
 30
0.0
  0
SPLINE
  5
218
100
AcDbEntity
  8
0
 62
7
100
AcDbSpline
 70
8
 71
3
 72
8
 73
4
 74
0
 40
0
 40
0
 40
0
 40
0
 40
1
 40
1
 40
1
 40
1
 10
27.720000
 20
58.931218
 30
0.0
 10
25.801964
 20
59.432018
 30
0.0
 10
21.686338
 20
59.426834
 30
0.0
 10
19.800000
 20
58.921235
 30
0.0
  0
SPLINE
  5
219
100
AcDbEntity
  8
0
 62
7
100
AcDbSpline
 70
8
 71
3
 72
8
 73
4
 74
0
 40
0
 40
0
 40
0
 40
0
 40
1
 40
1
 40
1
 40
1
 10
19.800000
 20
58.921235
 30
0.0
 10
18.118257
 20
58.470479
 30
0.0
 10
15.297572
 20
57.142883
 30
0.0
 10
14.311989
 20
56.338223
 30
0.0
  0
LWPOLYLINE
  5
21a
100
AcDbEntity
  8
0
 62
7
100
AcDbPolyline
 90
1
 70
1
 10
87.727238
 20
47.153325
 30
0.0
  0
SPLINE
  5
21b
100
AcDbEntity
  8
0
 62
7
100
AcDbSpline
 70
8
 71
3
 72
8
 73
4
 74
0
 40
0
 40
0
 40
0
 40
0
 40
1
 40
1
 40
1
 40
1
 10
13.930180
 20
54.408255
 30
0.0
 10
14.098591
 20
53.655712
 30
0.0
 10
14.277830
 20
53.040000
 30
0.0
 10
14.328489
 20
53.040000
 30
0.0
  0
SPLINE
  5
21c
100
AcDbEntity
  8
0
 62
7
100
AcDbSpline
 70
8
 71
3
 72
8
 73
4
 74
0
 40
0
 40
0
 40
0
 40
0
 40
1
 40
1
 40
1
 40
1
 10
14.328489
 20
53.040000
 30
0.0
 10
14.379144
 20
53.040000
 30
0.0
 10
14.982961
 20
53.462790
 30
0.0
 10
15.670297
 20
53.979532
 30
0.0
  0
SPLINE
  5
21d
100
AcDbEntity
  8
0
 62
7
100
AcDbSpline
 70
8
 71
3
 72
8
 73
4
 74
0
 40
0
 40
0
 40
0
 40
0
 40
1
 40
1
 40
1
 40
1
 10
15.670297
 20
53.979532
 30
0.0
 10
19.755536
 20
57.050853
 30
0.0
 10
25.383812
 20
57.530245
 30
0.0
 10
29.999858
 20
55.200075
 30
0.0
  0
SPLINE
  5
21e
100
AcDbEntity
  8
0
 62
7
100
AcDbSpline
 70
8
 71
3
 72
8
 73
4
 74
0
 40
0
 40
0
 40
0
 40
0
 40
1
 40
1
 40
1
 40
1
 10
29.999858
 20
55.200075
 30
0.0
 10
32.152286
 20
54.113527
 30
0.0
 10
34.577698
 20
51.701385
 30
0.0
 10
35.683322
 20
49.547692
 30
0.0
  0
SPLINE
  5
21f
100
AcDbEntity
  8
0
 62
7
100
AcDbSpline
 70
8
 71
3
 72
8
 73
4
 74
0
 40
0
 40
0
 40
0
 40
0
 40
1
 40
1
 40
1
 40
1
 10
35.683322
 20
49.547692
 30
0.0
 10
36.187495
 20
48.565590
 30
0.0
 10
36.687175
 20
47.761597
 30
0.0
 10
36.793723
 20
47.761027
 30
0.0
  0
SPLINE
  5
220
100
AcDbEntity
  8
0
 62
7
100
AcDbSpline
 70
8
 71
3
 72
8
 73
4
 74
0
 40
0
 40
0
 40
0
 40
0
 40
1
 40
1
 40
1
 40
1
 10
36.793723
 20
47.761027
 30
0.0
 10
36.900271
 20
47.760547
 30
0.0
 10
37.470242
 20
47.881567
 30
0.0
 10
38.060326
 20
48.030150
 30
0.0
  0
LWPOLYLINE
  5
221
100
AcDbEntity
  8
0
 62
7
100
AcDbPolyline
 90
3
 70
0
 10
14.311989
 20
56.338223
 30
0.0
 10
13.623977
 20
55.776510
 30
0.0
 10
13.930180
 20
54.408255
 30
0.0
  0
SPLINE
  5
222
100
AcDbEntity
  8
0
 62
7
100
AcDbSpline
 70
8
 71
3
 72
8
 73
4
 74
0
 40
0
 40
0
 40
0
 40
0
 40
1
 40
1
 40
1
 40
1
 10
47.809778
 20
49.379160
 30
0.0
 10
48.872150
 20
51.555960
 30
0.0
 10
51.460020
 20
54.168067
 30
0.0
 10
53.543482
 20
55.166565
 30
0.0
  0
SPLINE
  5
223
100
AcDbEntity
  8
0
 62
7
100
AcDbSpline
 70
8
 71
3
 72
8
 73
4
 74
0
 40
0
 40
0
 40
0
 40
0
 40
1
 40
1
 40
1
 40
1
 10
53.543482
 20
55.166565
 30
0.0
 10
56.611536
 20
56.636933
 30
0.0
 10
60.240300
 20
57.051240
 30
0.0
 10
63.230028
 20
56.272515
 30
0.0
  0
SPLINE
  5
224
100
AcDbEntity
  8
0
 62
7
100
AcDbSpline
 70
8
 71
3
 72
8
 73
4
 74
0
 40
0
 40
0
 40
0
 40
0
 40
1
 40
1
 40
1
 40
1
 10
63.230028
 20
56.272515
 30
0.0
 10
66.603358
 20
55.393875
 30
0.0
 10
70.226268
 20
52.490227
 30
0.0
 10
71.755025
 20
49.440000
 30
0.0
  0
SPLINE
  5
225
100
AcDbEntity
  8
0
 62
7
100
AcDbSpline
 70
8
 71
3
 72
8
 73
4
 74
0
 40
0
 40
0
 40
0
 40
0
 40
1
 40
1
 40
1
 40
1
 10
71.755025
 20
49.440000
 30
0.0
 10
72.185050
 20
48.582000
 30
0.0
 10
72.572258
 20
47.840835
 30
0.0
 10
72.615490
 20
47.792955
 30
0.0
  0
SPLINE
  5
226
100
AcDbEntity
  8
0
 62
7
100
AcDbSpline
 70
8
 71
3
 72
8
 73
4
 74
0
 40
0
 40
0
 40
0
 40
0
 40
1
 40
1
 40
1
 40
1
 10
72.615490
 20
47.792955
 30
0.0
 10
72.658720
 20
47.745105
 30
0.0
 10
73.243508
 20
47.837730
 30
0.0
 10
73.915016
 20
47.998807
 30
0.0
  0
SPLINE
  5
227
100
AcDbEntity
  8
0
 62
7
100
AcDbSpline
 70
8
 71
3
 72
8
 73
4
 74
0
 40
0
 40
0
 40
0
 40
0
 40
1
 40
1
 40
1
 40
1
 10
73.915016
 20
47.998807
 30
0.0
 10
75.338723
 20
48.340350
 30
0.0
 10
75.338460
 20
48.323100
 30
0.0
 10
73.959986
 20
51.000000
 30
0.0
  0
SPLINE
  5
228
100
AcDbEntity
  8
0
 62
7
100
AcDbSpline
 70
8
 71
3
 72
8
 73
4
 74
0
 40
0
 40
0
 40
0
 40
0
 40
1
 40
1
 40
1
 40
1
 10
73.959986
 20
51.000000
 30
0.0
 10
72.680915
 20
53.483872
 30
0.0
 10
69.771875
 20
56.297355
 30
0.0
 10
67.161155
 20
57.575510
 30
0.0
  0
SPLINE
  5
229
100
AcDbEntity
  8
0
 62
7
100
AcDbSpline
 70
8
 71
3
 72
8
 73
4
 74
0
 40
0
 40
0
 40
0
 40
0
 40
1
 40
1
 40
1
 40
1
 10
67.161155
 20
57.575510
 30
0.0
 10
66.060520
 20
58.114356
 30
0.0
 10
64.512000
 20
58.721801
 30
0.0
 10
63.720000
 20
58.925383
 30
0.0
  0
SPLINE
  5
22a
100
AcDbEntity
  8
0
 62
7
100
AcDbSpline
 70
8
 71
3
 72
8
 73
4
 74
0
 40
0
 40
0
 40
0
 40
0
 40
1
 40
1
 40
1
 40
1
 10
63.720000
 20
58.925383
 30
0.0
 10
61.817258
 20
59.414484
 30
0.0
 10
58.135025
 20
59.425750
 30
0.0
 10
56.104805
 20
58.948687
 30
0.0
  0
SPLINE
  5
22b
100
AcDbEntity
  8
0
 62
7
100
AcDbSpline
 70
8
 71
3
 72
8
 73
4
 74
0
 40
0
 40
0
 40
0
 40
0
 40
1
 40
1
 40
1
 40
1
 10
56.104805
 20
58.948687
 30
0.0
 10
51.029038
 20
57.755966
 30
0.0
 10
46.732204
 20
54.072990
 30
0.0
 10
44.816136
 20
49.272742
 30
0.0
  0
LWPOLYLINE
  5
22c
100
AcDbEntity
  8
0
 62
7
100
AcDbPolyline
 90
1
 70
1
 10
38.060326
 20
48.030150
 30
0.0
  0
SPLINE
  5
22d
100
AcDbEntity
  8
0
 62
7
100
AcDbSpline
 70
8
 71
3
 72
8
 73
4
 74
0
 40
0
 40
0
 40
0
 40
0
 40
1
 40
1
 40
1
 40
1
 10
45.427036
 20
48.038438
 30
0.0
 10
45.984168
 20
47.913577
 30
0.0
 10
46.570402
 20
47.799847
 30
0.0
 10
46.729778
 20
47.785710
 30
0.0
  0
SPLINE
  5
22e
100
AcDbEntity
  8
0
 62
7
100
AcDbSpline
 70
8
 71
3
 72
8
 73
4
 74
0
 40
0
 40
0
 40
0
 40
0
 40
1
 40
1
 40
1
 40
1
 10
46.729778
 20
47.785710
 30
0.0
 10
46.889158
 20
47.771535
 30
0.0
 10
47.375158
 20
48.488632
 30
0.0
 10
47.809778
 20
49.379168
 30
0.0
  0
LWPOLYLINE
  5
22f
100
AcDbEntity
  8
0
 62
7
100
AcDbPolyline
 90
3
 70
0
 10
44.816136
 20
49.272742
 30
0.0
 10
44.414076
 20
48.265470
 30
0.0
 10
45.427036
 20
48.038438
 30
0.0
  0
SPLINE
  5
230
100
AcDbEntity
  8
0
 62
7
100
AcDbSpline
 70
8
 71
3
 72
8
 73
4
 74
0
 40
0
 40
0
 40
0
 40
0
 40
1
 40
1
 40
1
 40
1
 10
83.802045
 20
49.379880
 30
0.0
 10
84.752895
 20
51.324510
 30
0.0
 10
87.349335
 20
54.032722
 30
0.0
 10
89.227590
 20
55.038990
 30
0.0
  0
SPLINE
  5
231
100
AcDbEntity
  8
0
 62
7
100
AcDbSpline
 70
8
 71
3
 72
8
 73
4
 74
0
 40
0
 40
0
 40
0
 40
0
 40
1
 40
1
 40
1
 40
1
 10
89.227590
 20
55.038990
 30
0.0
 10
93.237938
 20
57.187534
 30
0.0
 10
98.269200
 20
57.188866
 30
0.0
 10
102.240000
 20
55.042740
 30
0.0
  0
SPLINE
  5
232
100
AcDbEntity
  8
0
 62
7
100
AcDbSpline
 70
8
 71
3
 72
8
 73
4
 74
0
 40
0
 40
0
 40
0
 40
0
 40
1
 40
1
 40
1
 40
1
 10
102.240000
 20
55.042740
 30
0.0
 10
104.685825
 20
53.720640
 30
0.0
 10
107.273843
 20
50.908830
 30
0.0
 10
108.225015
 20
48.540188
 30
0.0
  0
SPLINE
  5
233
100
AcDbEntity
  8
0
 62
7
100
AcDbSpline
 70
8
 71
3
 72
8
 73
4
 74
0
 40
0
 40
0
 40
0
 40
0
 40
1
 40
1
 40
1
 40
1
 10
108.225015
 20
48.540188
 30
0.0
 10
108.397282
 20
48.111187
 30
0.0
 10
108.573817
 20
47.760187
 30
0.0
 10
108.617302
 20
47.760187
 30
0.0
  0
SPLINE
  5
234
100
AcDbEntity
  8
0
 62
7
100
AcDbSpline
 70
8
 71
3
 72
8
 73
4
 74
0
 40
0
 40
0
 40
0
 40
0
 40
1
 40
1
 40
1
 40
1
 10
108.617302
 20
47.760187
 30
0.0
 10
109.214678
 20
47.760187
 30
0.0
 10
111.120000
 20
48.341242
 30
0.0
 10
111.120000
 20
48.523425
 30
0.0
  0
SPLINE
  5
235
100
AcDbEntity
  8
0
 62
7
100
AcDbSpline
 70
8
 71
3
 72
8
 73
4
 74
0
 40
0
 40
0
 40
0
 40
0
 40
1
 40
1
 40
1
 40
1
 10
111.120000
 20
48.523425
 30
0.0
 10
111.120000
 20
48.657330
 30
0.0
 10
110.664563
 20
49.647382
 30
0.0
 10
110.107905
 20
50.723535
 30
0.0
  0
SPLINE
  5
236
100
AcDbEntity
  8
0
 62
7
100
AcDbSpline
 70
8
 71
3
 72
8
 73
4
 74
0
 40
0
 40
0
 40
0
 40
0
 40
1
 40
1
 40
1
 40
1
 10
110.107905
 20
50.723535
 30
0.0
 10
108.845468
 20
53.164185
 30
0.0
 10
105.971880
 20
56.141227
 30
0.0
 10
103.746075
 20
57.314427
 30
0.0
  0
SPLINE
  5
237
100
AcDbEntity
  8
0
 62
7
100
AcDbSpline
 70
8
 71
3
 72
8
 73
4
 74
0
 40
0
 40
0
 40
0
 40
0
 40
1
 40
1
 40
1
 40
1
 10
103.746075
 20
57.314427
 30
0.0
 10
101.165453
 20
58.674644
 30
0.0
 10
99.709148
 20
59.072507
 30
0.0
 10
96.789345
 20
59.215001
 30
0.0
  0
SPLINE
  5
238
100
AcDbEntity
  8
0
 62
7
100
AcDbSpline
 70
8
 71
3
 72
8
 73
4
 74
0
 40
0
 40
0
 40
0
 40
0
 40
1
 40
1
 40
1
 40
1
 10
96.789345
 20
59.215001
 30
0.0
 10
93.665100
 20
59.367473
 30
0.0
 10
91.844138
 20
59.080315
 30
0.0
 10
89.423992
 20
58.053521
 30
0.0
  0
SPLINE
  5
239
100
AcDbEntity
  8
0
 62
7
100
AcDbSpline
 70
8
 71
3
 72
8
 73
4
 74
0
 40
0
 40
0
 40
0
 40
0
 40
1
 40
1
 40
1
 40
1
 10
89.423992
 20
58.053521
 30
0.0
 10
85.654162
 20
56.454097
 30
0.0
 10
82.756882
 20
53.595232
 30
0.0
 10
81.073027
 20
49.813290
 30
0.0
  0
LWPOLYLINE
  5
23a
100
AcDbEntity
  8
0
 62
7
100
AcDbPolyline
 90
1
 70
1
 10
47.809778
 20
49.379168
 30
0.0
  0
SPLINE
  5
23b
100
AcDbEntity
  8
0
 62
7
100
AcDbSpline
 70
8
 71
3
 72
8
 73
4
 74
0
 40
0
 40
0
 40
0
 40
0
 40
1
 40
1
 40
1
 40
1
 10
81.433028
 20
48.083745
 30
0.0
 10
81.986857
 20
47.931705
 30
0.0
 10
82.568235
 20
47.796705
 30
0.0
 10
82.724963
 20
47.783745
 30
0.0
  0
SPLINE
  5
23c
100
AcDbEntity
  8
0
 62
7
100
AcDbSpline
 70
8
 71
3
 72
8
 73
4
 74
0
 40
0
 40
0
 40
0
 40
0
 40
1
 40
1
 40
1
 40
1
 10
82.724963
 20
47.783745
 30
0.0
 10
82.881690
 20
47.770770
 30
0.0
 10
83.366377
 20
48.489187
 30
0.0
 10
83.802045
 20
49.380187
 30
0.0
  0
LWPOLYLINE
  5
23d
100
AcDbEntity
  8
0
 62
7
100
AcDbPolyline
 90
3
 70
0
 10
81.073027
 20
49.813290
 30
0.0
 10
80.426055
 20
48.360187
 30
0.0
 10
81.433028
 20
48.083745
 30
0.0
  0
SPLINE
  5
23e
100
AcDbEntity
  8
0
 62
7
100
AcDbSpline
 70
8
 71
3
 72
8
 73
4
 74
0
 40
0
 40
0
 40
0
 40
0
 40
1
 40
1
 40
1
 40
1
 10
42.720000
 20
48.815602
 30
0.0
 10
42.720000
 20
49.648155
 30
0.0
 10
44.997478
 20
53.619533
 30
0.0
 10
46.251992
 20
54.974550
 30
0.0
  0
LWPOLYLINE
  5
23f
100
AcDbEntity
  8
0
 62
7
100
AcDbPolyline
 90
2
 70
0
 10
83.802045
 20
49.380187
 30
0.0
 10
83.802045
 20
49.379880
 30
0.0
  0
SPLINE
  5
240
100
AcDbEntity
  8
0
 62
7
100
AcDbSpline
 70
8
 71
3
 72
8
 73
4
 74
0
 40
0
 40
0
 40
0
 40
0
 40
1
 40
1
 40
1
 40
1
 10
47.116452
 20
57.072562
 30
0.0
 10
46.853273
 20
57.428652
 30
0.0
 10
45.936612
 20
58.080530
 30
0.0
 10
45.079428
 20
58.521178
 30
0.0
  0
SPLINE
  5
241
100
AcDbEntity
  8
0
 62
7
100
AcDbSpline
 70
8
 71
3
 72
8
 73
4
 74
0
 40
0
 40
0
 40
0
 40
0
 40
1
 40
1
 40
1
 40
1
 10
45.079428
 20
58.521178
 30
0.0
 10
43.745194
 20
59.207056
 30
0.0
 10
43.276562
 20
59.322352
 30
0.0
 10
41.822940
 20
59.322352
 30
0.0
  0
SPLINE
  5
242
100
AcDbEntity
  8
0
 62
7
100
AcDbSpline
 70
8
 71
3
 72
8
 73
4
 74
0
 40
0
 40
0
 40
0
 40
0
 40
1
 40
1
 40
1
 40
1
 10
41.822940
 20
59.322352
 30
0.0
 10
39.813394
 20
59.322352
 30
0.0
 10
38.458318
 20
58.805088
 30
0.0
 10
36.987991
 20
57.476736
 30
0.0
  0
LWPOLYLINE
  5
243
100
AcDbEntity
  8
0
 62
7
100
AcDbPolyline
 90
3
 70
0
 10
46.251992
 20
54.974550
 30
0.0
 10
47.594962
 20
56.425125
 30
0.0
 10
47.116452
 20
57.072562
 30
0.0
  0
SPLINE
  5
244
100
AcDbEntity
  8
0
 62
7
100
AcDbSpline
 70
8
 71
3
 72
8
 73
4
 74
0
 40
0
 40
0
 40
0
 40
0
 40
1
 40
1
 40
1
 40
1
 10
36.963286
 20
55.528643
 30
0.0
 10
38.262384
 20
54.119280
 30
0.0
 10
39.629328
 20
51.968610
 30
0.0
 10
40.443324
 20
50.053350
 30
0.0
  0
SPLINE
  5
245
100
AcDbEntity
  8
0
 62
7
100
AcDbSpline
 70
8
 71
3
 72
8
 73
4
 74
0
 40
0
 40
0
 40
0
 40
0
 40
1
 40
1
 40
1
 40
1
 10
40.443324
 20
50.053350
 30
0.0
 10
41.077274
 20
48.561727
 30
0.0
 10
41.153772
 20
48.480000
 30
0.0
 10
41.916004
 20
48.480000
 30
0.0
  0
SPLINE
  5
246
100
AcDbEntity
  8
0
 62
7
100
AcDbSpline
 70
8
 71
3
 72
8
 73
4
 74
0
 40
0
 40
0
 40
0
 40
0
 40
1
 40
1
 40
1
 40
1
 10
41.916004
 20
48.480000
 30
0.0
 10
42.444691
 20
48.480000
 30
0.0
 10
42.720000
 20
48.594922
 30
0.0
 10
42.720000
 20
48.815602
 30
0.0
  0
LWPOLYLINE
  5
247
100
AcDbEntity
  8
0
 62
7
100
AcDbPolyline
 90
3
 70
0
 10
36.987991
 20
57.476736
 30
0.0
 10
35.994734
 20
56.579392
 30
0.0
 10
36.963286
 20
55.528643
 30
0.0
  0
SPLINE
  5
248
100
AcDbEntity
  8
0
 62
7
100
AcDbSpline
 70
8
 71
3
 72
8
 73
4
 74
0
 40
0
 40
0
 40
0
 40
0
 40
1
 40
1
 40
1
 40
1
 10
79.052063
 20
49.732155
 30
0.0
 10
79.619512
 20
51.329850
 30
0.0
 10
81.190560
 20
53.878118
 30
0.0
 10
82.497067
 20
55.320037
 30
0.0
  0
SPLINE
  5
249
100
AcDbEntity
  8
0
 62
7
100
AcDbSpline
 70
8
 71
3
 72
8
 73
4
 74
0
 40
0
 40
0
 40
0
 40
0
 40
1
 40
1
 40
1
 40
1
 10
82.497067
 20
55.320037
 30
0.0
 10
83.663287
 20
56.607120
 30
0.0
 10
83.625788
 20
56.890087
 30
0.0
 10
82.154348
 20
57.906314
 30
0.0
  0
SPLINE
  5
24a
100
AcDbEntity
  8
0
 62
7
100
AcDbSpline
 70
8
 71
3
 72
8
 73
4
 74
0
 40
0
 40
0
 40
0
 40
0
 40
1
 40
1
 40
1
 40
1
 10
82.154348
 20
57.906314
 30
0.0
 10
79.092300
 20
60.021062
 30
0.0
 10
75.372293
 20
59.828160
 30
0.0
 10
72.907544
 20
57.426814
 30
0.0
  0
LWPOLYLINE
  5
24b
100
AcDbEntity
  8
0
 62
7
100
AcDbPolyline
 90
1
 70
1
 10
42.720000
 20
48.815602
 30
0.0
  0
SPLINE
  5
24c
100
AcDbEntity
  8
0
 62
7
100
AcDbSpline
 70
8
 71
3
 72
8
 73
4
 74
0
 40
0
 40
0
 40
0
 40
0
 40
1
 40
1
 40
1
 40
1
 10
72.973459
 20
55.517602
 30
0.0
 10
74.524036
 20
53.835420
 30
0.0
 10
76.274542
 20
50.880420
 30
0.0
 10
76.893637
 20
48.900000
 30
0.0
  0
SPLINE
  5
24d
100
AcDbEntity
  8
0
 62
7
100
AcDbSpline
 70
8
 71
3
 72
8
 73
4
 74
0
 40
0
 40
0
 40
0
 40
0
 40
1
 40
1
 40
1
 40
1
 10
76.893637
 20
48.900000
 30
0.0
 10
76.983833
 20
48.611490
 30
0.0
 10
77.272627
 20
48.480000
 30
0.0
 10
77.816137
 20
48.480000
 30
0.0
  0
SPLINE
  5
24e
100
AcDbEntity
  8
0
 62
7
100
AcDbSpline
 70
8
 71
3
 72
8
 73
4
 74
0
 40
0
 40
0
 40
0
 40
0
 40
1
 40
1
 40
1
 40
1
 10
77.816137
 20
48.480000
 30
0.0
 10
78.553140
 20
48.480000
 30
0.0
 10
78.637793
 20
48.565770
 30
0.0
 10
79.052063
 20
49.732155
 30
0.0
  0
LWPOLYLINE
  5
24f
100
AcDbEntity
  8
0
 62
7
100
AcDbPolyline
 90
3
 70
0
 10
72.907544
 20
57.426814
 30
0.0
 10
72.015084
 20
56.557312
 30
0.0
 10
72.973459
 20
55.517602
 30
0.0
  0
SPLINE
  5
250
100
AcDbEntity
  8
0
 62
7
100
AcDbSpline
 70
8
 71
3
 72
8
 73
4
 74
0
 40
0
 40
0
 40
0
 40
0
 40
1
 40
1
 40
1
 40
1
 10
114.720000
 20
48.792698
 30
0.0
 10
114.720000
 20
49.343265
 30
0.0
 10
116.541030
 20
52.882387
 30
0.0
 10
117.403192
 20
54.007402
 30
0.0
  0
SPLINE
  5
251
100
AcDbEntity
  8
0
 62
7
100
AcDbSpline
 70
8
 71
3
 72
8
 73
4
 74
0
 40
0
 40
0
 40
0
 40
0
 40
1
 40
1
 40
1
 40
1
 10
117.403192
 20
54.007402
 30
0.0
 10
117.861525
 20
54.605468
 30
0.0
 10
118.367835
 20
55.616250
 30
0.0
 10
118.528312
 20
56.253592
 30
0.0
  0
SPLINE
  5
252
100
AcDbEntity
  8
0
 62
7
100
AcDbSpline
 70
8
 71
3
 72
8
 73
4
 74
0
 40
0
 40
0
 40
0
 40
0
 40
1
 40
1
 40
1
 40
1
 10
118.528312
 20
56.253592
 30
0.0
 10
118.868385
 20
57.604140
 30
0.0
 10
118.787730
 20
57.712276
 30
0.0
 10
116.692170
 20
58.715436
 30
0.0
  0
SPLINE
  5
253
100
AcDbEntity
  8
0
 62
7
100
AcDbSpline
 70
8
 71
3
 72
8
 73
4
 74
0
 40
0
 40
0
 40
0
 40
0
 40
1
 40
1
 40
1
 40
1
 10
116.692170
 20
58.715436
 30
0.0
 10
114.175732
 20
59.920075
 30
0.0
 10
111.151425
 20
59.431267
 30
0.0
 10
108.979230
 20
57.468823
 30
0.0
  0
LWPOLYLINE
  5
254
100
AcDbEntity
  8
0
 62
7
100
AcDbPolyline
 90
1
 70
1
 10
79.052063
 20
49.732155
 30
0.0
  0
SPLINE
  5
255
100
AcDbEntity
  8
0
 62
7
100
AcDbSpline
 70
8
 71
3
 72
8
 73
4
 74
0
 40
0
 40
0
 40
0
 40
0
 40
1
 40
1
 40
1
 40
1
 10
108.792810
 20
55.701780
 30
0.0
 10
110.245860
 20
54.166432
 30
0.0
 10
111.260550
 20
52.638202
 30
0.0
 10
112.219950
 20
50.540145
 30
0.0
  0
SPLINE
  5
256
100
AcDbEntity
  8
0
 62
7
100
AcDbSpline
 70
8
 71
3
 72
8
 73
4
 74
0
 40
0
 40
0
 40
0
 40
0
 40
1
 40
1
 40
1
 40
1
 10
112.219950
 20
50.540145
 30
0.0
 10
113.118510
 20
48.575152
 30
0.0
 10
113.194425
 20
48.484320
 30
0.0
 10
113.940000
 20
48.482212
 30
0.0
  0
SPLINE
  5
257
100
AcDbEntity
  8
0
 62
7
100
AcDbSpline
 70
8
 71
3
 72
8
 73
4
 74
0
 40
0
 40
0
 40
0
 40
0
 40
1
 40
1
 40
1
 40
1
 10
113.940000
 20
48.482212
 30
0.0
 10
114.422017
 20
48.480712
 30
0.0
 10
114.720000
 20
48.599460
 30
0.0
 10
114.720000
 20
48.792697
 30
0.0
  0
LWPOLYLINE
  5
258
100
AcDbEntity
  8
0
 62
7
100
AcDbPolyline
 90
3
 70
0
 10
108.979230
 20
57.468823
 30
0.0
 10
107.977222
 20
56.563567
 30
0.0
 10
108.792810
 20
55.701780
 30
0.0
  0
SPLINE
  5
259
100
AcDbEntity
  8
0
 62
7
100
AcDbSpline
 70
8
 71
3
 72
8
 73
4
 74
0
 40
0
 40
0
 40
0
 40
0
 40
1
 40
1
 40
1
 40
1
 10
51.112414
 20
59.195918
 30
0.0
 10
51.127846
 20
59.756812
 30
0.0
 10
48.309124
 20
62.026039
 30
0.0
 10
46.560000
 20
62.860879
 30
0.0
  0
SPLINE
  5
25a
100
AcDbEntity
  8
0
 62
7
100
AcDbSpline
 70
8
 71
3
 72
8
 73
4
 74
0
 40
0
 40
0
 40
0
 40
0
 40
1
 40
1
 40
1
 40
1
 10
46.560000
 20
62.860879
 30
0.0
 10
44.791051
 20
63.705180
 30
0.0
 10
44.708248
 20
63.719959
 30
0.0
 10
41.760000
 20
63.717624
 30
0.0
  0
SPLINE
  5
25b
100
AcDbEntity
  8
0
 62
7
100
AcDbSpline
 70
8
 71
3
 72
8
 73
4
 74
0
 40
0
 40
0
 40
0
 40
0
 40
1
 40
1
 40
1
 40
1
 10
41.760000
 20
63.717624
 30
0.0
 10
38.780568
 20
63.715224
 30
0.0
 10
38.747268
 20
63.709029
 30
0.0
 10
36.902945
 20
62.810023
 30
0.0
  0
SPLINE
  5
25c
100
AcDbEntity
  8
0
 62
7
100
AcDbSpline
 70
8
 71
3
 72
8
 73
4
 74
0
 40
0
 40
0
 40
0
 40
0
 40
1
 40
1
 40
1
 40
1
 10
36.902945
 20
62.810023
 30
0.0
 10
35.734080
 20
62.240256
 30
0.0
 10
34.538554
 20
61.409474
 30
0.0
 10
33.676860
 20
60.568192
 30
0.0
  0
LWPOLYLINE
  5
25d
100
AcDbEntity
  8
0
 62
7
100
AcDbPolyline
 90
1
 70
1
 10
114.720000
 20
48.792697
 30
0.0
  0
SPLINE
  5
25e
100
AcDbEntity
  8
0
 62
7
100
AcDbSpline
 70
8
 71
3
 72
8
 73
4
 74
0
 40
0
 40
0
 40
0
 40
0
 40
1
 40
1
 40
1
 40
1
 10
32.893913
 20
58.786610
 30
0.0
 10
34.338341
 20
57.689947
 30
0.0
 10
34.437416
 20
57.690446
 30
0.0
 10
35.685758
 20
58.800650
 30
0.0
  0
SPLINE
  5
25f
100
AcDbEntity
  8
0
 62
7
100
AcDbSpline
 70
8
 71
3
 72
8
 73
4
 74
0
 40
0
 40
0
 40
0
 40
0
 40
1
 40
1
 40
1
 40
1
 10
35.685758
 20
58.800650
 30
0.0
 10
36.320592
 20
59.365234
 30
0.0
 10
37.434000
 20
60.107102
 30
0.0
 10
38.160000
 20
60.449246
 30
0.0
  0
SPLINE
  5
260
100
AcDbEntity
  8
0
 62
7
100
AcDbSpline
 70
8
 71
3
 72
8
 73
4
 74
0
 40
0
 40
0
 40
0
 40
0
 40
1
 40
1
 40
1
 40
1
 10
38.160000
 20
60.449246
 30
0.0
 10
39.288653
 20
60.981148
 30
0.0
 10
39.811121
 20
61.071956
 30
0.0
 10
41.764212
 20
61.075663
 30
0.0
  0
SPLINE
  5
261
100
AcDbEntity
  8
0
 62
7
100
AcDbSpline
 70
8
 71
3
 72
8
 73
4
 74
0
 40
0
 40
0
 40
0
 40
0
 40
1
 40
1
 40
1
 40
1
 10
41.764212
 20
61.075663
 30
0.0
 10
43.852970
 20
61.079638
 30
0.0
 10
44.181552
 20
61.014403
 30
0.0
 10
45.604212
 20
60.313392
 30
0.0
  0
SPLINE
  5
262
100
AcDbEntity
  8
0
 62
7
100
AcDbSpline
 70
8
 71
3
 72
8
 73
4
 74
0
 40
0
 40
0
 40
0
 40
0
 40
1
 40
1
 40
1
 40
1
 10
45.604212
 20
60.313392
 30
0.0
 10
46.459896
 20
59.891758
 30
0.0
 10
47.576108
 20
59.119826
 30
0.0
 10
48.084684
 20
58.597994
 30
0.0
  0
LWPOLYLINE
  5
263
100
AcDbEntity
  8
0
 62
7
100
AcDbPolyline
 90
3
 70
0
 10
33.676860
 20
60.568192
 30
0.0
 10
32.307828
 20
59.231590
 30
0.0
 10
32.893913
 20
58.786610
 30
0.0
  0
SPLINE
  5
264
100
AcDbEntity
  8
0
 62
7
100
AcDbSpline
 70
8
 71
3
 72
8
 73
4
 74
0
 40
0
 40
0
 40
0
 40
0
 40
1
 40
1
 40
1
 40
1
 10
50.057098
 20
58.284602
 30
0.0
 10
50.633350
 20
58.634071
 30
0.0
 10
51.108242
 20
59.044164
 30
0.0
 10
51.112414
 20
59.195918
 30
0.0
  0
LWPOLYLINE
  5
265
100
AcDbEntity
  8
0
 62
7
100
AcDbPolyline
 90
3
 70
0
 10
48.084684
 20
58.597994
 30
0.0
 10
49.009368
 20
57.649204
 30
0.0
 10
50.057098
 20
58.284602
 30
0.0
  0
SPLINE
  5
266
100
AcDbEntity
  8
0
 62
7
100
AcDbSpline
 70
8
 71
3
 72
8
 73
4
 74
0
 40
0
 40
0
 40
0
 40
0
 40
1
 40
1
 40
1
 40
1
 10
87.120000
 20
59.256715
 30
0.0
 10
87.120000
 20
59.363227
 30
0.0
 10
86.544075
 20
59.995060
 30
0.0
 10
85.840162
 20
60.660794
 30
0.0
  0
SPLINE
  5
267
100
AcDbEntity
  8
0
 62
7
100
AcDbSpline
 70
8
 71
3
 72
8
 73
4
 74
0
 40
0
 40
0
 40
0
 40
0
 40
1
 40
1
 40
1
 40
1
 10
85.840162
 20
60.660794
 30
0.0
 10
83.664345
 20
62.718586
 30
0.0
 10
80.846295
 20
63.844334
 30
0.0
 10
77.896440
 20
63.834132
 30
0.0
  0
SPLINE
  5
268
100
AcDbEntity
  8
0
 62
7
100
AcDbSpline
 70
8
 71
3
 72
8
 73
4
 74
0
 40
0
 40
0
 40
0
 40
0
 40
1
 40
1
 40
1
 40
1
 10
77.896440
 20
63.834132
 30
0.0
 10
74.624414
 20
63.822830
 30
0.0
 10
71.933688
 20
62.747544
 30
0.0
 10
69.716081
 20
60.565088
 30
0.0
  0
LWPOLYLINE
  5
269
100
AcDbEntity
  8
0
 62
7
100
AcDbPolyline
 90
1
 70
1
 10
51.112414
 20
59.195918
 30
0.0
  0
SPLINE
  5
26a
100
AcDbEntity
  8
0
 62
7
100
AcDbSpline
 70
8
 71
3
 72
8
 73
4
 74
0
 40
0
 40
0
 40
0
 40
0
 40
1
 40
1
 40
1
 40
1
 10
68.908994
 20
58.775237
 30
0.0
 10
70.335076
 20
57.692314
 30
0.0
 10
70.463222
 20
57.689662
 30
0.0
 10
71.580905
 20
58.719902
 30
0.0
  0
SPLINE
  5
26b
100
AcDbEntity
  8
0
 62
7
100
AcDbSpline
 70
8
 71
3
 72
8
 73
4
 74
0
 40
0
 40
0
 40
0
 40
0
 40
1
 40
1
 40
1
 40
1
 10
71.580905
 20
58.719902
 30
0.0
 10
72.149942
 20
59.244422
 30
0.0
 10
73.260029
 20
59.990021
 30
0.0
 10
74.047759
 20
60.376787
 30
0.0
  0
SPLINE
  5
26c
100
AcDbEntity
  8
0
 62
7
100
AcDbSpline
 70
8
 71
3
 72
8
 73
4
 74
0
 40
0
 40
0
 40
0
 40
0
 40
1
 40
1
 40
1
 40
1
 10
74.047759
 20
60.376787
 30
0.0
 10
75.326887
 20
61.004824
 30
0.0
 10
75.724193
 20
61.080000
 30
0.0
 10
77.764215
 20
61.080000
 30
0.0
  0
SPLINE
  5
26d
100
AcDbEntity
  8
0
 62
7
100
AcDbSpline
 70
8
 71
3
 72
8
 73
4
 74
0
 40
0
 40
0
 40
0
 40
0
 40
1
 40
1
 40
1
 40
1
 10
77.764215
 20
61.080000
 30
0.0
 10
79.848382
 20
61.080000
 30
0.0
 10
80.184682
 20
61.012860
 30
0.0
 10
81.604215
 20
60.313392
 30
0.0
  0
SPLINE
  5
26e
100
AcDbEntity
  8
0
 62
7
100
AcDbSpline
 70
8
 71
3
 72
8
 73
4
 74
0
 40
0
 40
0
 40
0
 40
0
 40
1
 40
1
 40
1
 40
1
 10
81.604215
 20
60.313392
 30
0.0
 10
82.459898
 20
59.891758
 30
0.0
 10
83.581140
 20
59.114674
 30
0.0
 10
84.095865
 20
58.586540
 30
0.0
  0
LWPOLYLINE
  5
26f
100
AcDbEntity
  8
0
 62
7
100
AcDbPolyline
 90
3
 70
0
 10
69.716081
 20
60.565088
 30
0.0
 10
68.337992
 20
59.208840
 30
0.0
 10
68.908994
 20
58.775237
 30
0.0
  0
SPLINE
  5
270
100
AcDbEntity
  8
0
 62
7
100
AcDbSpline
 70
8
 71
3
 72
8
 73
4
 74
0
 40
0
 40
0
 40
0
 40
0
 40
1
 40
1
 40
1
 40
1
 10
86.075865
 20
58.344679
 30
0.0
 10
86.650140
 20
58.739789
 30
0.0
 10
87.120000
 20
59.150206
 30
0.0
 10
87.120000
 20
59.256715
 30
0.0
  0
LWPOLYLINE
  5
271
100
AcDbEntity
  8
0
 62
7
100
AcDbPolyline
 90
3
 70
0
 10
84.095865
 20
58.586540
 30
0.0
 10
85.031737
 20
57.626297
 30
0.0
 10
86.075865
 20
58.344679
 30
0.0
  0
SPLINE
  5
272
100
AcDbEntity
  8
0
 62
7
100
AcDbSpline
 70
8
 71
3
 72
8
 73
4
 74
0
 40
0
 40
0
 40
0
 40
0
 40
1
 40
1
 40
1
 40
1
 10
15.037789
 20
59.101142
 30
0.0
 10
15.191284
 20
59.349504
 30
0.0
 10
12.794252
 20
61.834253
 30
0.0
 10
12.594177
 20
61.634177
 30
0.0
  0
SPLINE
  5
273
100
AcDbEntity
  8
0
 62
7
100
AcDbSpline
 70
8
 71
3
 72
8
 73
4
 74
0
 40
0
 40
0
 40
0
 40
0
 40
1
 40
1
 40
1
 40
1
 10
12.594177
 20
61.634177
 30
0.0
 10
12.490863
 20
61.530864
 30
0.0
 10
12.884131
 20
58.692742
 30
0.0
 10
13.077941
 20
58.142976
 30
0.0
  0
SPLINE
  5
274
100
AcDbEntity
  8
0
 62
7
100
AcDbSpline
 70
8
 71
3
 72
8
 73
4
 74
0
 40
0
 40
0
 40
0
 40
0
 40
1
 40
1
 40
1
 40
1
 10
13.077941
 20
58.142976
 30
0.0
 10
13.153883
 20
57.927554
 30
0.0
 10
13.416024
 20
57.983645
 30
0.0
 10
14.032093
 20
58.347134
 30
0.0
  0
SPLINE
  5
275
100
AcDbEntity
  8
0
 62
7
100
AcDbSpline
 70
8
 71
3
 72
8
 73
4
 74
0
 40
0
 40
0
 40
0
 40
0
 40
1
 40
1
 40
1
 40
1
 10
14.032093
 20
58.347134
 30
0.0
 10
14.499285
 20
58.622784
 30
0.0
 10
14.951848
 20
58.962089
 30
0.0
 10
15.037789
 20
59.101142
 30
0.0
  0
LWPOLYLINE
  5
276
100
AcDbEntity
  8
0
 62
7
100
AcDbPolyline
 90
1
 70
1
 10
87.120000
 20
59.256715
 30
0.0
  0
SPLINE
  5
277
100
AcDbEntity
  8
0
 62
7
100
AcDbSpline
 70
8
 71
3
 72
8
 73
4
 74
0
 40
0
 40
0
 40
0
 40
0
 40
1
 40
1
 40
1
 40
1
 10
107.497088
 20
58.656360
 30
0.0
 10
109.547280
 20
60.771622
 30
0.0
 10
113.316878
 20
61.711730
 30
0.0
 10
116.286623
 20
60.848400
 30
0.0
  0
SPLINE
  5
278
100
AcDbEntity
  8
0
 62
7
100
AcDbSpline
 70
8
 71
3
 72
8
 73
4
 74
0
 40
0
 40
0
 40
0
 40
0
 40
1
 40
1
 40
1
 40
1
 10
116.286623
 20
60.848400
 30
0.0
 10
117.069150
 20
60.620914
 30
0.0
 10
118.014997
 20
60.217180
 30
0.0
 10
118.388512
 20
59.951212
 30
0.0
  0
SPLINE
  5
279
100
AcDbEntity
  8
0
 62
7
100
AcDbSpline
 70
8
 71
3
 72
8
 73
4
 74
0
 40
0
 40
0
 40
0
 40
0
 40
1
 40
1
 40
1
 40
1
 10
118.388512
 20
59.951212
 30
0.0
 10
118.762035
 20
59.685244
 30
0.0
 10
119.112593
 20
59.512594
 30
0.0
 10
119.167538
 20
59.567539
 30
0.0
  0
SPLINE
  5
27a
100
AcDbEntity
  8
0
 62
7
100
AcDbSpline
 70
8
 71
3
 72
8
 73
4
 74
0
 40
0
 40
0
 40
0
 40
0
 40
1
 40
1
 40
1
 40
1
 10
119.167538
 20
59.567539
 30
0.0
 10
119.222512
 20
59.622484
 30
0.0
 10
119.297265
 20
60.305966
 30
0.0
 10
119.333722
 20
61.086384
 30
0.0
  0
LWPOLYLINE
  5
27b
100
AcDbEntity
  8
0
 62
7
100
AcDbPolyline
 90
1
 70
1
 10
15.037789
 20
59.101142
 30
0.0
  0
SPLINE
  5
27c
100
AcDbEntity
  8
0
 62
7
100
AcDbSpline
 70
8
 71
3
 72
8
 73
4
 74
0
 40
0
 40
0
 40
0
 40
0
 40
1
 40
1
 40
1
 40
1
 10
117.960023
 20
63.112663
 30
0.0
 10
116.691900
 20
63.647508
 30
0.0
 10
116.190585
 20
63.718478
 30
0.0
 10
113.760023
 20
63.707260
 30
0.0
  0
SPLINE
  5
27d
100
AcDbEntity
  8
0
 62
7
100
AcDbSpline
 70
8
 71
3
 72
8
 73
4
 74
0
 40
0
 40
0
 40
0
 40
0
 40
1
 40
1
 40
1
 40
1
 10
113.760023
 20
63.707260
 30
0.0
 10
111.479970
 20
63.696745
 30
0.0
 10
110.761103
 20
63.600230
 30
0.0
 10
109.626075
 20
63.152282
 30
0.0
  0
SPLINE
  5
27e
100
AcDbEntity
  8
0
 62
7
100
AcDbSpline
 70
8
 71
3
 72
8
 73
4
 74
0
 40
0
 40
0
 40
0
 40
0
 40
1
 40
1
 40
1
 40
1
 10
109.626075
 20
63.152282
 30
0.0
 10
108.016440
 20
62.517024
 30
0.0
 10
105.647153
 20
60.837340
 30
0.0
 10
104.919713
 20
59.815744
 30
0.0
  0
LWPOLYLINE
  5
27f
100
AcDbEntity
  8
0
 62
7
100
AcDbPolyline
 90
3
 70
0
 10
119.333722
 20
61.086384
 30
0.0
 10
119.400023
 20
62.505324
 30
0.0
 10
117.960023
 20
63.112663
 30
0.0
  0
SPLINE
  5
280
100
AcDbEntity
  8
0
 62
7
100
AcDbSpline
 70
8
 71
3
 72
8
 73
4
 74
0
 40
0
 40
0
 40
0
 40
0
 40
1
 40
1
 40
1
 40
1
 10
105.304628
 20
58.483843
 30
0.0
 10
105.797093
 20
58.145599
 30
0.0
 10
106.313835
 20
57.862360
 30
0.0
 10
106.452945
 20
57.854426
 30
0.0
  0
SPLINE
  5
281
100
AcDbEntity
  8
0
 62
7
100
AcDbSpline
 70
8
 71
3
 72
8
 73
4
 74
0
 40
0
 40
0
 40
0
 40
0
 40
1
 40
1
 40
1
 40
1
 10
106.452945
 20
57.854426
 30
0.0
 10
106.592048
 20
57.846484
 30
0.0
 10
107.061923
 20
58.207360
 30
0.0
 10
107.497110
 20
58.656360
 30
0.0
  0
LWPOLYLINE
  5
282
100
AcDbEntity
  8
0
 62
7
100
AcDbPolyline
 90
3
 70
0
 10
104.919713
 20
59.815744
 30
0.0
 10
104.409233
 20
59.098834
 30
0.0
 10
105.304628
 20
58.483843
 30
0.0
  0
SPLINE
  5
283
100
AcDbEntity
  8
0
 62
7
100
AcDbSpline
 70
8
 71
3
 72
8
 73
4
 74
0
 40
0
 40
0
 40
0
 40
0
 40
1
 40
1
 40
1
 40
1
 10
18.092156
 20
60.280460
 30
0.0
 10
18.635470
 20
60.434712
 30
0.0
 10
19.174516
 20
60.642629
 30
0.0
 10
19.290037
 20
60.742496
 30
0.0
  0
SPLINE
  5
284
100
AcDbEntity
  8
0
 62
7
100
AcDbSpline
 70
8
 71
3
 72
8
 73
4
 74
0
 40
0
 40
0
 40
0
 40
0
 40
1
 40
1
 40
1
 40
1
 10
19.290037
 20
60.742496
 30
0.0
 10
19.625729
 20
61.032704
 30
0.0
 10
17.319132
 20
63.769896
 30
0.0
 10
15.736097
 20
64.959886
 30
0.0
  0
SPLINE
  5
285
100
AcDbEntity
  8
0
 62
7
100
AcDbSpline
 70
8
 71
3
 72
8
 73
4
 74
0
 40
0
 40
0
 40
0
 40
0
 40
1
 40
1
 40
1
 40
1
 10
15.736097
 20
64.959886
 30
0.0
 10
14.939131
 20
65.558976
 30
0.0
 10
13.757050
 20
66.317722
 30
0.0
 10
13.109251
 20
66.645986
 30
0.0
  0
LWPOLYLINE
  5
286
100
AcDbEntity
  8
0
 62
7
100
AcDbPolyline
 90
1
 70
1
 10
107.497110
 20
58.656360
 30
0.0
  0
SPLINE
  5
287
100
AcDbEntity
  8
0
 62
7
100
AcDbSpline
 70
8
 71
3
 72
8
 73
4
 74
0
 40
0
 40
0
 40
0
 40
0
 40
1
 40
1
 40
1
 40
1
 10
12.085717
 20
66.471416
 30
0.0
 10
12.170572
 20
66.047136
 30
0.0
 10
12.240001
 20
65.362500
 30
0.0
 10
12.240004
 20
64.950000
 30
0.0
  0
SPLINE
  5
288
100
AcDbEntity
  8
0
 62
7
100
AcDbSpline
 70
8
 71
3
 72
8
 73
4
 74
0
 40
0
 40
0
 40
0
 40
0
 40
1
 40
1
 40
1
 40
1
 10
12.240004
 20
64.950000
 30
0.0
 10
12.240007
 20
64.305295
 30
0.0
 10
12.459169
 20
64.037788
 30
0.0
 10
13.801078
 20
63.044590
 30
0.0
  0
SPLINE
  5
289
100
AcDbEntity
  8
0
 62
7
100
AcDbSpline
 70
8
 71
3
 72
8
 73
4
 74
0
 40
0
 40
0
 40
0
 40
0
 40
1
 40
1
 40
1
 40
1
 10
13.801078
 20
63.044590
 30
0.0
 10
14.659666
 20
62.409115
 30
0.0
 10
15.703741
 20
61.464115
 30
0.0
 10
16.121242
 20
60.944590
 30
0.0
  0
SPLINE
  5
28a
100
AcDbEntity
  8
0
 62
7
100
AcDbSpline
 70
8
 71
3
 72
8
 73
4
 74
0
 40
0
 40
0
 40
0
 40
0
 40
1
 40
1
 40
1
 40
1
 10
16.121242
 20
60.944590
 30
0.0
 10
16.538743
 20
60.425066
 30
0.0
 10
16.930729
 20
60.000000
 30
0.0
 10
16.992323
 20
60.000000
 30
0.0
  0
SPLINE
  5
28b
100
AcDbEntity
  8
0
 62
7
100
AcDbSpline
 70
8
 71
3
 72
8
 73
4
 74
0
 40
0
 40
0
 40
0
 40
0
 40
1
 40
1
 40
1
 40
1
 10
16.992323
 20
60.000000
 30
0.0
 10
17.053920
 20
60.000000
 30
0.0
 10
17.548841
 20
60.126206
 30
0.0
 10
18.092156
 20
60.280460
 30
0.0
  0
LWPOLYLINE
  5
28c
100
AcDbEntity
  8
0
 62
7
100
AcDbPolyline
 90
3
 70
0
 10
13.109251
 20
66.645986
 30
0.0
 10
11.931433
 20
67.242830
 30
0.0
 10
12.085717
 20
66.471416
 30
0.0
  0
SPLINE
  5
28d
100
AcDbEntity
  8
0
 62
7
100
AcDbSpline
 70
8
 71
3
 72
8
 73
4
 74
0
 40
0
 40
0
 40
0
 40
0
 40
1
 40
1
 40
1
 40
1
 10
30.960000
 20
60.191652
 30
0.0
 10
30.960000
 20
60.524009
 30
0.0
 10
32.836630
 20
62.352821
 30
0.0
 10
34.246262
 20
63.394176
 30
0.0
  0
SPLINE
  5
28e
100
AcDbEntity
  8
0
 62
7
100
AcDbSpline
 70
8
 71
3
 72
8
 73
4
 74
0
 40
0
 40
0
 40
0
 40
0
 40
1
 40
1
 40
1
 40
1
 10
34.246262
 20
63.394176
 30
0.0
 10
36.399842
 20
64.985119
 30
0.0
 10
38.452536
 20
65.588294
 30
0.0
 10
41.760000
 20
65.602054
 30
0.0
  0
SPLINE
  5
28f
100
AcDbEntity
  8
0
 62
7
100
AcDbSpline
 70
8
 71
3
 72
8
 73
4
 74
0
 40
0
 40
0
 40
0
 40
0
 40
1
 40
1
 40
1
 40
1
 10
41.760000
 20
65.602054
 30
0.0
 10
46.077329
 20
65.620009
 30
0.0
 10
48.447132
 20
64.626137
 30
0.0
 10
51.552756
 20
61.495054
 30
0.0
  0
LWPOLYLINE
  5
290
100
AcDbEntity
  8
0
 62
7
100
AcDbPolyline
 90
1
 70
1
 10
18.092156
 20
60.280460
 30
0.0
  0
SPLINE
  5
291
100
AcDbEntity
  8
0
 62
7
100
AcDbSpline
 70
8
 71
3
 72
8
 73
4
 74
0
 40
0
 40
0
 40
0
 40
0
 40
1
 40
1
 40
1
 40
1
 10
54.264974
 20
60.368294
 30
0.0
 10
54.924677
 20
60.587414
 30
0.0
 10
55.431938
 20
60.854350
 30
0.0
 10
55.392218
 20
60.961486
 30
0.0
  0
SPLINE
  5
292
100
AcDbEntity
  8
0
 62
7
100
AcDbSpline
 70
8
 71
3
 72
8
 73
4
 74
0
 40
0
 40
0
 40
0
 40
0
 40
1
 40
1
 40
1
 40
1
 10
55.392218
 20
60.961486
 30
0.0
 10
55.130873
 20
61.666409
 30
0.0
 10
52.847324
 20
64.207198
 30
0.0
 10
51.739718
 20
65.025434
 30
0.0
  0
SPLINE
  5
293
100
AcDbEntity
  8
0
 62
7
100
AcDbSpline
 70
8
 71
3
 72
8
 73
4
 74
0
 40
0
 40
0
 40
0
 40
0
 40
1
 40
1
 40
1
 40
1
 10
51.739718
 20
65.025434
 30
0.0
 10
48.142364
 20
67.682954
 30
0.0
 10
42.687176
 20
69.007654
 30
0.0
 10
38.943444
 20
68.132792
 30
0.0
  0
SPLINE
  5
294
100
AcDbEntity
  8
0
 62
7
100
AcDbSpline
 70
8
 71
3
 72
8
 73
4
 74
0
 40
0
 40
0
 40
0
 40
0
 40
1
 40
1
 40
1
 40
1
 10
38.943444
 20
68.132792
 30
0.0
 10
35.220776
 20
67.262849
 30
0.0
 10
32.288312
 20
65.648016
 30
0.0
 10
30.011688
 20
63.214298
 30
0.0
  0
SPLINE
  5
295
100
AcDbEntity
  8
0
 62
7
100
AcDbSpline
 70
8
 71
3
 72
8
 73
4
 74
0
 40
0
 40
0
 40
0
 40
0
 40
1
 40
1
 40
1
 40
1
 10
30.011688
 20
63.214298
 30
0.0
 10
27.911830
 20
60.969542
 30
0.0
 10
27.868364
 20
60.835001
 30
0.0
 10
29.101918
 20
60.398309
 30
0.0
  0
SPLINE
  5
296
100
AcDbEntity
  8
0
 62
7
100
AcDbSpline
 70
8
 71
3
 72
8
 73
4
 74
0
 40
0
 40
0
 40
0
 40
0
 40
1
 40
1
 40
1
 40
1
 10
29.101918
 20
60.398309
 30
0.0
 10
30.258552
 20
59.988844
 30
0.0
 10
30.960000
 20
59.910830
 30
0.0
 10
30.960000
 20
60.191652
 30
0.0
  0
LWPOLYLINE
  5
297
100
AcDbEntity
  8
0
 62
7
100
AcDbPolyline
 90
3
 70
0
 10
51.552756
 20
61.495054
 30
0.0
 10
53.065512
 20
59.969897
 30
0.0
 10
54.264974
 20
60.368294
 30
0.0
  0
SPLINE
  5
298
100
AcDbEntity
  8
0
 62
7
100
AcDbSpline
 70
8
 71
3
 72
8
 73
4
 74
0
 40
0
 40
0
 40
0
 40
0
 40
1
 40
1
 40
1
 40
1
 10
68.048482
 20
61.428408
 30
0.0
 10
69.747334
 20
63.209476
 30
0.0
 10
71.923112
 20
64.633128
 30
0.0
 10
73.800000
 20
65.191733
 30
0.0
  0
SPLINE
  5
299
100
AcDbEntity
  8
0
 62
7
100
AcDbSpline
 70
8
 71
3
 72
8
 73
4
 74
0
 40
0
 40
0
 40
0
 40
0
 40
1
 40
1
 40
1
 40
1
 10
73.800000
 20
65.191733
 30
0.0
 10
75.992310
 20
65.844214
 30
0.0
 10
80.038800
 20
65.789563
 30
0.0
 10
82.121423
 20
65.079348
 30
0.0
  0
SPLINE
  5
29a
100
AcDbEntity
  8
0
 62
7
100
AcDbSpline
 70
8
 71
3
 72
8
 73
4
 74
0
 40
0
 40
0
 40
0
 40
0
 40
1
 40
1
 40
1
 40
1
 10
82.121423
 20
65.079348
 30
0.0
 10
84.032813
 20
64.427525
 30
0.0
 10
86.686973
 20
62.622905
 30
0.0
 10
88.009005
 20
61.076258
 30
0.0
  0
LWPOLYLINE
  5
29b
100
AcDbEntity
  8
0
 62
7
100
AcDbPolyline
 90
1
 70
1
 10
30.960000
 20
60.191652
 30
0.0
  0
SPLINE
  5
29c
100
AcDbEntity
  8
0
 62
7
100
AcDbSpline
 70
8
 71
3
 72
8
 73
4
 74
0
 40
0
 40
0
 40
0
 40
0
 40
1
 40
1
 40
1
 40
1
 10
90.022358
 20
60.259548
 30
0.0
 10
90.604058
 20
60.425302
 30
0.0
 10
91.174035
 20
60.642144
 30
0.0
 10
91.288965
 20
60.741422
 30
0.0
  0
SPLINE
  5
29d
100
AcDbEntity
  8
0
 62
7
100
AcDbSpline
 70
8
 71
3
 72
8
 73
4
 74
0
 40
0
 40
0
 40
0
 40
0
 40
1
 40
1
 40
1
 40
1
 10
91.288965
 20
60.741422
 30
0.0
 10
91.599818
 20
61.009944
 30
0.0
 10
89.607150
 20
63.436601
 30
0.0
 10
88.214693
 20
64.485236
 30
0.0
  0
SPLINE
  5
29e
100
AcDbEntity
  8
0
 62
7
100
AcDbSpline
 70
8
 71
3
 72
8
 73
4
 74
0
 40
0
 40
0
 40
0
 40
0
 40
1
 40
1
 40
1
 40
1
 10
88.214693
 20
64.485236
 30
0.0
 10
87.546615
 20
64.988357
 30
0.0
 10
86.962815
 20
65.484552
 30
0.0
 10
86.917365
 20
65.587896
 30
0.0
  0
SPLINE
  5
29f
100
AcDbEntity
  8
0
 62
7
100
AcDbSpline
 70
8
 71
3
 72
8
 73
4
 74
0
 40
0
 40
0
 40
0
 40
0
 40
1
 40
1
 40
1
 40
1
 10
86.917365
 20
65.587896
 30
0.0
 10
86.718367
 20
66.040406
 30
0.0
 10
83.287950
 20
67.480255
 30
0.0
 10
81.293003
 20
67.948612
 30
0.0
  0
SPLINE
  5
2a0
100
AcDbEntity
  8
0
 62
7
100
AcDbSpline
 70
8
 71
3
 72
8
 73
4
 74
0
 40
0
 40
0
 40
0
 40
0
 40
1
 40
1
 40
1
 40
1
 10
81.293003
 20
67.948612
 30
0.0
 10
77.231468
 20
68.902150
 30
0.0
 10
72.428102
 20
68.063875
 30
0.0
 10
69.122282
 20
65.824603
 30
0.0
  0
SPLINE
  5
2a1
100
AcDbEntity
  8
0
 62
7
100
AcDbSpline
 70
8
 71
3
 72
8
 73
4
 74
0
 40
0
 40
0
 40
0
 40
0
 40
1
 40
1
 40
1
 40
1
 10
69.122282
 20
65.824603
 30
0.0
 10
67.667816
 20
64.839386
 30
0.0
 10
64.795344
 20
62.098327
 30
0.0
 10
64.361654
 20
61.281770
 30
0.0
  0
SPLINE
  5
2a2
100
AcDbEntity
  8
0
 62
7
100
AcDbSpline
 70
8
 71
3
 72
8
 73
4
 74
0
 40
0
 40
0
 40
0
 40
0
 40
1
 40
1
 40
1
 40
1
 10
64.361654
 20
61.281770
 30
0.0
 10
64.108442
 20
60.805015
 30
0.0
 10
64.167788
 20
60.735410
 30
0.0
 10
65.103206
 20
60.412032
 30
0.0
  0
SPLINE
  5
2a3
100
AcDbEntity
  8
0
 62
7
100
AcDbSpline
 70
8
 71
3
 72
8
 73
4
 74
0
 40
0
 40
0
 40
0
 40
0
 40
1
 40
1
 40
1
 40
1
 10
65.103206
 20
60.412032
 30
0.0
 10
65.662442
 20
60.218700
 30
0.0
 10
66.247354
 20
60.046903
 30
0.0
 10
66.403006
 20
60.030262
 30
0.0
  0
SPLINE
  5
2a4
100
AcDbEntity
  8
0
 62
7
100
AcDbSpline
 70
8
 71
3
 72
8
 73
4
 74
0
 40
0
 40
0
 40
0
 40
0
 40
1
 40
1
 40
1
 40
1
 10
66.403006
 20
60.030262
 30
0.0
 10
66.558658
 20
60.013627
 30
0.0
 10
67.299122
 20
60.642785
 30
0.0
 10
68.048482
 20
61.428408
 30
0.0
  0
LWPOLYLINE
  5
2a5
100
AcDbEntity
  8
0
 62
7
100
AcDbPolyline
 90
3
 70
0
 10
88.009005
 20
61.076258
 30
0.0
 10
88.964715
 20
59.958176
 30
0.0
 10
90.022358
 20
60.259548
 30
0.0
  0
SPLINE
  5
2a6
100
AcDbEntity
  8
0
 62
7
100
AcDbSpline
 70
8
 71
3
 72
8
 73
4
 74
0
 40
0
 40
0
 40
0
 40
0
 40
1
 40
1
 40
1
 40
1
 10
103.548053
 20
60.917566
 30
0.0
 10
106.797870
 20
65.026990
 30
0.0
 10
112.842953
 20
66.724519
 30
0.0
 10
118.030943
 20
64.984529
 30
0.0
  0
LWPOLYLINE
  5
2a7
100
AcDbEntity
  8
0
 62
7
100
AcDbPolyline
 90
1
 70
1
 10
68.048482
 20
61.428408
 30
0.0
  0
SPLINE
  5
2a8
100
AcDbEntity
  8
0
 62
7
100
AcDbSpline
 70
8
 71
3
 72
8
 73
4
 74
0
 40
0
 40
0
 40
0
 40
0
 40
1
 40
1
 40
1
 40
1
 10
119.760000
 20
65.052310
 30
0.0
 10
119.760000
 20
65.408540
 30
0.0
 10
119.823225
 20
66.015974
 30
0.0
 10
119.900430
 20
66.402166
 30
0.0
  0
SPLINE
  5
2a9
100
AcDbEntity
  8
0
 62
7
100
AcDbSpline
 70
8
 71
3
 72
8
 73
4
 74
0
 40
0
 40
0
 40
0
 40
0
 40
1
 40
1
 40
1
 40
1
 10
119.900430
 20
66.402166
 30
0.0
 10
120.071033
 20
67.255178
 30
0.0
 10
119.755035
 20
67.434785
 30
0.0
 10
117.008550
 20
68.045818
 30
0.0
  0
SPLINE
  5
2aa
100
AcDbEntity
  8
0
 62
7
100
AcDbSpline
 70
8
 71
3
 72
8
 73
4
 74
0
 40
0
 40
0
 40
0
 40
0
 40
1
 40
1
 40
1
 40
1
 10
117.008550
 20
68.045818
 30
0.0
 10
111.702683
 20
69.226262
 30
0.0
 10
105.778755
 20
67.289516
 30
0.0
 10
101.908343
 20
63.109008
 30
0.0
  0
SPLINE
  5
2ab
100
AcDbEntity
  8
0
 62
7
100
AcDbSpline
 70
8
 71
3
 72
8
 73
4
 74
0
 40
0
 40
0
 40
0
 40
0
 40
1
 40
1
 40
1
 40
1
 10
101.908343
 20
63.109008
 30
0.0
 10
99.916125
 20
60.957180
 30
0.0
 10
99.878692
 20
60.831346
 30
0.0
 10
101.101920
 20
60.398309
 30
0.0
  0
SPLINE
  5
2ac
100
AcDbEntity
  8
0
 62
7
100
AcDbSpline
 70
8
 71
3
 72
8
 73
4
 74
0
 40
0
 40
0
 40
0
 40
0
 40
1
 40
1
 40
1
 40
1
 10
101.101920
 20
60.398309
 30
0.0
 10
102.564630
 20
59.880490
 30
0.0
 10
102.760852
 20
59.922142
 30
0.0
 10
103.548052
 20
60.917566
 30
0.0
  0
LWPOLYLINE
  5
2ad
100
AcDbEntity
  8
0
 62
7
100
AcDbPolyline
 90
3
 70
0
 10
118.030943
 20
64.984529
 30
0.0
 10
119.760000
 20
64.404622
 30
0.0
 10
119.760000
 20
65.052310
 30
0.0
  0
SPLINE
  5
2ae
100
AcDbEntity
  8
0
 62
7
100
AcDbSpline
 70
8
 71
3
 72
8
 73
4
 74
0
 40
0
 40
0
 40
0
 40
0
 40
1
 40
1
 40
1
 40
1
 10
27.222268
 20
62.707096
 30
0.0
 10
27.731546
 20
63.470000
 30
0.0
 10
28.726876
 20
64.623043
 30
0.0
 10
29.434114
 20
65.269418
 30
0.0
  0
SPLINE
  5
2af
100
AcDbEntity
  8
0
 62
7
100
AcDbSpline
 70
8
 71
3
 72
8
 73
4
 74
0
 40
0
 40
0
 40
0
 40
0
 40
1
 40
1
 40
1
 40
1
 10
29.434114
 20
65.269418
 30
0.0
 10
30.141350
 20
65.915794
 30
0.0
 10
30.720000
 20
66.618904
 30
0.0
 10
30.720000
 20
66.831886
 30
0.0
  0
SPLINE
  5
2b0
100
AcDbEntity
  8
0
 62
7
100
AcDbSpline
 70
8
 71
3
 72
8
 73
4
 74
0
 40
0
 40
0
 40
0
 40
0
 40
1
 40
1
 40
1
 40
1
 10
30.720000
 20
66.831886
 30
0.0
 10
30.720000
 20
68.157308
 30
0.0
 10
28.653116
 20
70.595518
 30
0.0
 10
26.749874
 20
71.515260
 30
0.0
  0
SPLINE
  5
2b1
100
AcDbEntity
  8
0
 62
7
100
AcDbSpline
 70
8
 71
3
 72
8
 73
4
 74
0
 40
0
 40
0
 40
0
 40
0
 40
1
 40
1
 40
1
 40
1
 10
26.749874
 20
71.515260
 30
0.0
 10
25.031909
 20
72.345466
 30
0.0
 10
22.431646
 20
72.321444
 30
0.0
 10
20.760000
 20
71.459917
 30
0.0
  0
SPLINE
  5
2b2
100
AcDbEntity
  8
0
 62
7
100
AcDbSpline
 70
8
 71
3
 72
8
 73
4
 74
0
 40
0
 40
0
 40
0
 40
0
 40
1
 40
1
 40
1
 40
1
 10
20.760000
 20
71.459917
 30
0.0
 10
19.228378
 20
70.670558
 30
0.0
 10
17.922944
 20
69.315545
 30
0.0
 10
17.271117
 20
67.838529
 30
0.0
  0
LWPOLYLINE
  5
2b3
100
AcDbEntity
  8
0
 62
7
100
AcDbPolyline
 90
1
 70
1
 10
103.548052
 20
60.917566
 30
0.0
  0
SPLINE
  5
2b4
100
AcDbEntity
  8
0
 62
7
100
AcDbSpline
 70
8
 71
3
 72
8
 73
4
 74
0
 40
0
 40
0
 40
0
 40
0
 40
1
 40
1
 40
1
 40
1
 10
18.533031
 20
64.838529
 30
0.0
 10
19.508999
 20
63.827337
 30
0.0
 10
20.550765
 20
62.598829
 30
0.0
 10
20.848068
 20
62.108515
 30
0.0
  0
LWPOLYLINE
  5
2b5
100
AcDbEntity
  8
0
 62
7
100
AcDbPolyline
 90
3
 70
0
 10
17.271117
 20
67.838529
 30
0.0
 10
16.758545
 20
66.677059
 30
0.0
 10
18.533031
 20
64.838529
 30
0.0
  0
SPLINE
  5
2b6
100
AcDbEntity
  8
0
 62
7
100
AcDbSpline
 70
8
 71
3
 72
8
 73
4
 74
0
 40
0
 40
0
 40
0
 40
0
 40
1
 40
1
 40
1
 40
1
 10
23.714310
 20
61.148515
 30
0.0
 10
24.993440
 20
61.110827
 30
0.0
 10
26.097670
 20
61.133995
 30
0.0
 10
26.168155
 20
61.199995
 30
0.0
  0
SPLINE
  5
2b7
100
AcDbEntity
  8
0
 62
7
100
AcDbSpline
 70
8
 71
3
 72
8
 73
4
 74
0
 40
0
 40
0
 40
0
 40
0
 40
1
 40
1
 40
1
 40
1
 10
26.168155
 20
61.199995
 30
0.0
 10
26.238640
 20
61.265995
 30
0.0
 10
26.712994
 20
61.944187
 30
0.0
 10
27.222268
 20
62.707091
 30
0.0
  0
LWPOLYLINE
  5
2b8
100
AcDbEntity
  8
0
 62
7
100
AcDbPolyline
 90
3
 70
0
 10
20.848068
 20
62.108515
 30
0.0
 10
21.388619
 20
61.217035
 30
0.0
 10
23.714310
 20
61.148515
 30
0.0
  0
SPLINE
  5
2b9
100
AcDbEntity
  8
0
 62
7
100
AcDbSpline
 70
8
 71
3
 72
8
 73
4
 74
0
 40
0
 40
0
 40
0
 40
0
 40
1
 40
1
 40
1
 40
1
 10
63.000000
 20
62.327318
 30
0.0
 10
64.281194
 20
64.306312
 30
0.0
 10
64.380886
 20
64.426868
 30
0.0
 10
65.540948
 20
65.400000
 30
0.0
  0
SPLINE
  5
2ba
100
AcDbEntity
  8
0
 62
7
100
AcDbSpline
 70
8
 71
3
 72
8
 73
4
 74
0
 40
0
 40
0
 40
0
 40
0
 40
1
 40
1
 40
1
 40
1
 10
65.540948
 20
65.400000
 30
0.0
 10
66.174440
 20
65.931413
 30
0.0
 10
66.692642
 20
66.574294
 30
0.0
 10
66.701684
 20
66.840000
 30
0.0
  0
SPLINE
  5
2bb
100
AcDbEntity
  8
0
 62
7
100
AcDbSpline
 70
8
 71
3
 72
8
 73
4
 74
0
 40
0
 40
0
 40
0
 40
0
 40
1
 40
1
 40
1
 40
1
 10
66.701684
 20
66.840000
 30
0.0
 10
66.710661
 20
67.104000
 30
0.0
 10
66.361970
 20
67.914000
 30
0.0
 10
65.926805
 20
68.640000
 30
0.0
  0
SPLINE
  5
2bc
100
AcDbEntity
  8
0
 62
7
100
AcDbSpline
 70
8
 71
3
 72
8
 73
4
 74
0
 40
0
 40
0
 40
0
 40
0
 40
1
 40
1
 40
1
 40
1
 10
65.926805
 20
68.640000
 30
0.0
 10
64.379904
 20
71.220742
 30
0.0
 10
61.238066
 20
72.647160
 30
0.0
 10
58.466686
 20
72.026952
 30
0.0
  0
SPLINE
  5
2bd
100
AcDbEntity
  8
0
 62
7
100
AcDbSpline
 70
8
 71
3
 72
8
 73
4
 74
0
 40
0
 40
0
 40
0
 40
0
 40
1
 40
1
 40
1
 40
1
 10
58.466686
 20
72.026952
 30
0.0
 10
55.911744
 20
71.455181
 30
0.0
 10
53.371236
 20
69.180746
 30
0.0
 10
53.109724
 20
67.231042
 30
0.0
  0
SPLINE
  5
2be
100
AcDbEntity
  8
0
 62
7
100
AcDbSpline
 70
8
 71
3
 72
8
 73
4
 74
0
 40
0
 40
0
 40
0
 40
0
 40
1
 40
1
 40
1
 40
1
 10
53.109724
 20
67.231042
 30
0.0
 10
52.993972
 20
66.368042
 30
0.0
 10
53.057832
 20
66.249132
 30
0.0
 10
54.106802
 20
65.374493
 30
0.0
  0
SPLINE
  5
2bf
100
AcDbEntity
  8
0
 62
7
100
AcDbSpline
 70
8
 71
3
 72
8
 73
4
 74
0
 40
0
 40
0
 40
0
 40
0
 40
1
 40
1
 40
1
 40
1
 10
54.106802
 20
65.374493
 30
0.0
 10
54.723216
 20
64.860521
 30
0.0
 10
55.726418
 20
63.711000
 30
0.0
 10
56.336140
 20
62.820000
 30
0.0
  0
LWPOLYLINE
  5
2c0
100
AcDbEntity
  8
0
 62
7
100
AcDbPolyline
 90
1
 70
1
 10
27.222268
 20
62.707091
 30
0.0
  0
SPLINE
  5
2c1
100
AcDbEntity
  8
0
 62
7
100
AcDbSpline
 70
8
 71
3
 72
8
 73
4
 74
0
 40
0
 40
0
 40
0
 40
0
 40
1
 40
1
 40
1
 40
1
 10
99.120000
 20
62.551028
 30
0.0
 10
99.582000
 20
63.281405
 30
0.0
 10
100.592512
 20
64.482844
 30
0.0
 10
101.365590
 20
65.220893
 30
0.0
  0
LWPOLYLINE
  5
2c2
100
AcDbEntity
  8
0
 62
7
100
AcDbPolyline
 90
6
 70
0
 10
56.336140
 20
62.820000
 30
0.0
 10
57.444725
 20
61.200000
 30
0.0
 10
59.862362
 20
61.207583
 30
0.0
 10
62.280000
 20
61.215168
 30
0.0
 10
63.000000
 20
62.327314
 30
0.0
 10
63.000000
 20
62.327318
 30
0.0
  0
SPLINE
  5
2c3
100
AcDbEntity
  8
0
 62
7
100
AcDbSpline
 70
8
 71
3
 72
8
 73
4
 74
0
 40
0
 40
0
 40
0
 40
0
 40
1
 40
1
 40
1
 40
1
 10
102.500468
 20
67.466320
 30
0.0
 10
102.062558
 20
68.927950
 30
0.0
 10
100.575285
 20
70.593012
 30
0.0
 10
98.992785
 20
71.393333
 30
0.0
  0
SPLINE
  5
2c4
100
AcDbEntity
  8
0
 62
7
100
AcDbSpline
 70
8
 71
3
 72
8
 73
4
 74
0
 40
0
 40
0
 40
0
 40
0
 40
1
 40
1
 40
1
 40
1
 10
98.992785
 20
71.393333
 30
0.0
 10
97.812150
 20
71.990417
 30
0.0
 10
97.306688
 20
72.104453
 30
0.0
 10
95.891145
 20
72.093082
 30
0.0
  0
SPLINE
  5
2c5
100
AcDbEntity
  8
0
 62
7
100
AcDbSpline
 70
8
 71
3
 72
8
 73
4
 74
0
 40
0
 40
0
 40
0
 40
0
 40
1
 40
1
 40
1
 40
1
 10
95.891145
 20
72.093082
 30
0.0
 10
92.909745
 20
72.069127
 30
0.0
 10
90.667568
 20
70.652294
 30
0.0
 10
89.350298
 20
67.959900
 30
0.0
  0
LWPOLYLINE
  5
2c6
100
AcDbEntity
  8
0
 62
7
100
AcDbPolyline
 90
3
 70
0
 10
101.365590
 20
65.220893
 30
0.0
 10
102.771173
 20
66.562798
 30
0.0
 10
102.500468
 20
67.466320
 30
0.0
  0
SPLINE
  5
2c7
100
AcDbEntity
  8
0
 62
7
100
AcDbSpline
 70
8
 71
3
 72
8
 73
4
 74
0
 40
0
 40
0
 40
0
 40
0
 40
1
 40
1
 40
1
 40
1
 10
90.139583
 20
65.300698
 30
0.0
 10
90.920813
 20
64.547624
 30
0.0
 10
91.982955
 20
63.316894
 30
0.0
 10
92.499893
 20
62.565737
 30
0.0
  0
LWPOLYLINE
  5
2c8
100
AcDbEntity
  8
0
 62
7
100
AcDbPolyline
 90
3
 70
0
 10
89.350298
 20
67.959900
 30
0.0
 10
88.719173
 20
66.669920
 30
0.0
 10
90.139583
 20
65.300698
 30
0.0
  0
SPLINE
  5
2c9
100
AcDbEntity
  8
0
 62
7
100
AcDbSpline
 70
8
 71
3
 72
8
 73
4
 74
0
 40
0
 40
0
 40
0
 40
0
 40
1
 40
1
 40
1
 40
1
 10
15.805822
 20
68.995406
 30
0.0
 10
16.502390
 20
70.604686
 30
0.0
 10
18.231684
 20
72.277514
 30
0.0
 10
20.107664
 20
73.156786
 30
0.0
  0
SPLINE
  5
2ca
100
AcDbEntity
  8
0
 62
7
100
AcDbSpline
 70
8
 71
3
 72
8
 73
4
 74
0
 40
0
 40
0
 40
0
 40
0
 40
1
 40
1
 40
1
 40
1
 10
20.107664
 20
73.156786
 30
0.0
 10
21.309388
 20
73.720034
 30
0.0
 10
21.778372
 20
73.800000
 30
0.0
 10
23.880000
 20
73.800000
 30
0.0
  0
SPLINE
  5
2cb
100
AcDbEntity
  8
0
 62
7
100
AcDbSpline
 70
8
 71
3
 72
8
 73
4
 74
0
 40
0
 40
0
 40
0
 40
0
 40
1
 40
1
 40
1
 40
1
 10
23.880000
 20
73.800000
 30
0.0
 10
26.032438
 20
73.800000
 30
0.0
 10
26.423606
 20
73.729485
 30
0.0
 10
27.672185
 20
73.116386
 30
0.0
  0
SPLINE
  5
2cc
100
AcDbEntity
  8
0
 62
7
100
AcDbSpline
 70
8
 71
3
 72
8
 73
4
 74
0
 40
0
 40
0
 40
0
 40
0
 40
1
 40
1
 40
1
 40
1
 10
27.672185
 20
73.116386
 30
0.0
 10
29.419781
 20
72.258254
 30
0.0
 10
31.145504
 20
70.547206
 30
0.0
 10
31.903586
 20
68.920968
 30
0.0
  0
SPLINE
  5
2cd
100
AcDbEntity
  8
0
 62
7
100
AcDbSpline
 70
8
 71
3
 72
8
 73
4
 74
0
 40
0
 40
0
 40
0
 40
0
 40
1
 40
1
 40
1
 40
1
 10
31.903586
 20
68.920968
 30
0.0
 10
32.224560
 20
68.232418
 30
0.0
 10
32.548560
 20
67.705260
 30
0.0
 10
32.623586
 20
67.749506
 30
0.0
  0
SPLINE
  5
2ce
100
AcDbEntity
  8
0
 62
7
100
AcDbSpline
 70
8
 71
3
 72
8
 73
4
 74
0
 40
0
 40
0
 40
0
 40
0
 40
1
 40
1
 40
1
 40
1
 10
32.623586
 20
67.749506
 30
0.0
 10
32.698616
 20
67.793756
 30
0.0
 10
33.217900
 20
68.039216
 30
0.0
 10
33.777560
 20
68.294978
 30
0.0
  0
SPLINE
  5
2cf
100
AcDbEntity
  8
0
 62
7
100
AcDbSpline
 70
8
 71
3
 72
8
 73
4
 74
0
 40
0
 40
0
 40
0
 40
0
 40
1
 40
1
 40
1
 40
1
 10
33.777560
 20
68.294978
 30
0.0
 10
34.337218
 20
68.550740
 30
0.0
 10
34.796218
 20
68.874353
 30
0.0
 10
34.797559
 20
69.014120
 30
0.0
  0
SPLINE
  5
2d0
100
AcDbEntity
  8
0
 62
7
100
AcDbSpline
 70
8
 71
3
 72
8
 73
4
 74
0
 40
0
 40
0
 40
0
 40
0
 40
1
 40
1
 40
1
 40
1
 10
34.797559
 20
69.014120
 30
0.0
 10
34.802284
 20
69.503858
 30
0.0
 10
33.081067
 20
72.129902
 30
0.0
 10
32.085355
 20
73.152148
 30
0.0
  0
SPLINE
  5
2d1
100
AcDbEntity
  8
0
 62
7
100
AcDbSpline
 70
8
 71
3
 72
8
 73
4
 74
0
 40
0
 40
0
 40
0
 40
0
 40
1
 40
1
 40
1
 40
1
 10
32.085355
 20
73.152148
 30
0.0
 10
30.751178
 20
74.521879
 30
0.0
 10
29.258846
 20
75.448760
 30
0.0
 10
27.360000
 20
76.087036
 30
0.0
  0
SPLINE
  5
2d2
100
AcDbEntity
  8
0
 62
7
100
AcDbSpline
 70
8
 71
3
 72
8
 73
4
 74
0
 40
0
 40
0
 40
0
 40
0
 40
1
 40
1
 40
1
 40
1
 10
27.360000
 20
76.087036
 30
0.0
 10
26.033246
 20
76.533012
 30
0.0
 10
25.416082
 20
76.595992
 30
0.0
 10
23.232268
 20
76.508268
 30
0.0
  0
SPLINE
  5
2d3
100
AcDbEntity
  8
0
 62
7
100
AcDbSpline
 70
8
 71
3
 72
8
 73
4
 74
0
 40
0
 40
0
 40
0
 40
0
 40
1
 40
1
 40
1
 40
1
 10
23.232268
 20
76.508268
 30
0.0
 10
20.856030
 20
76.412816
 30
0.0
 10
20.529783
 20
76.338524
 30
0.0
 10
18.857636
 20
75.512104
 30
0.0
  0
SPLINE
  5
2d4
100
AcDbEntity
  8
0
 62
7
100
AcDbSpline
 70
8
 71
3
 72
8
 73
4
 74
0
 40
0
 40
0
 40
0
 40
0
 40
1
 40
1
 40
1
 40
1
 10
18.857636
 20
75.512104
 30
0.0
 10
17.863840
 20
75.020942
 30
0.0
 10
16.509490
 20
74.110790
 30
0.0
 10
15.847969
 20
73.489543
 30
0.0
  0
SPLINE
  5
2d5
100
AcDbEntity
  8
0
 62
7
100
AcDbSpline
 70
8
 71
3
 72
8
 73
4
 74
0
 40
0
 40
0
 40
0
 40
0
 40
1
 40
1
 40
1
 40
1
 10
15.847969
 20
73.489543
 30
0.0
 10
14.624035
 20
72.340121
 30
0.0
 10
12.960000
 20
69.823217
 30
0.0
 10
12.960000
 20
69.121402
 30
0.0
  0
SPLINE
  5
2d6
100
AcDbEntity
  8
0
 62
7
100
AcDbSpline
 70
8
 71
3
 72
8
 73
4
 74
0
 40
0
 40
0
 40
0
 40
0
 40
1
 40
1
 40
1
 40
1
 10
12.960000
 20
69.121402
 30
0.0
 10
12.960000
 20
68.814164
 30
0.0
 10
14.579647
 20
67.747582
 30
0.0
 10
15.120000
 20
67.698984
 30
0.0
  0
SPLINE
  5
2d7
100
AcDbEntity
  8
0
 62
7
100
AcDbSpline
 70
8
 71
3
 72
8
 73
4
 74
0
 40
0
 40
0
 40
0
 40
0
 40
1
 40
1
 40
1
 40
1
 10
15.120000
 20
67.698984
 30
0.0
 10
15.186000
 20
67.693059
 30
0.0
 10
15.494620
 20
68.276438
 30
0.0
 10
15.805822
 20
68.995406
 30
0.0
  0
LWPOLYLINE
  5
2d8
100
AcDbEntity
  8
0
 62
7
100
AcDbPolyline
 90
6
 70
0
 10
92.499893
 20
62.565737
 30
0.0
 10
93.439785
 20
61.200000
 30
0.0
 10
95.859893
 20
61.211520
 30
0.0
 10
98.280000
 20
61.223040
 30
0.0
 10
99.120000
 20
62.551004
 30
0.0
 10
99.120000
 20
62.551028
 30
0.0
  0
SPLINE
  5
2d9
100
AcDbEntity
  8
0
 62
7
100
AcDbSpline
 70
8
 71
3
 72
8
 73
4
 74
0
 40
0
 40
0
 40
0
 40
0
 40
1
 40
1
 40
1
 40
1
 10
51.360000
 20
67.922616
 30
0.0
 10
51.360000
 20
68.549546
 30
0.0
 10
52.468838
 20
70.409959
 30
0.0
 10
53.364730
 20
71.286160
 30
0.0
  0
SPLINE
  5
2da
100
AcDbEntity
  8
0
 62
7
100
AcDbSpline
 70
8
 71
3
 72
8
 73
4
 74
0
 40
0
 40
0
 40
0
 40
0
 40
1
 40
1
 40
1
 40
1
 10
53.364730
 20
71.286160
 30
0.0
 10
53.912129
 20
71.821526
 30
0.0
 10
55.060339
 20
72.606154
 30
0.0
 10
55.916309
 20
73.029778
 30
0.0
  0
SPLINE
  5
2db
100
AcDbEntity
  8
0
 62
7
100
AcDbSpline
 70
8
 71
3
 72
8
 73
4
 74
0
 40
0
 40
0
 40
0
 40
0
 40
1
 40
1
 40
1
 40
1
 10
55.916309
 20
73.029778
 30
0.0
 10
57.355176
 20
73.741877
 30
0.0
 10
57.654008
 20
73.800000
 30
0.0
 10
59.876309
 20
73.800000
 30
0.0
  0
SPLINE
  5
2dc
100
AcDbEntity
  8
0
 62
7
100
AcDbSpline
 70
8
 71
3
 72
8
 73
4
 74
0
 40
0
 40
0
 40
0
 40
0
 40
1
 40
1
 40
1
 40
1
 10
59.876309
 20
73.800000
 30
0.0
 10
62.019524
 20
73.800000
 30
0.0
 10
62.427365
 20
73.727632
 30
0.0
 10
63.639896
 20
73.132183
 30
0.0
  0
SPLINE
  5
2dd
100
AcDbEntity
  8
0
 62
7
100
AcDbSpline
 70
8
 71
3
 72
8
 73
4
 74
0
 40
0
 40
0
 40
0
 40
0
 40
1
 40
1
 40
1
 40
1
 10
63.639896
 20
73.132183
 30
0.0
 10
65.257016
 20
72.338052
 30
0.0
 10
67.140158
 20
70.510012
 30
0.0
 10
67.892088
 20
69.004418
 30
0.0
  0
SPLINE
  5
2de
100
AcDbEntity
  8
0
 62
7
100
AcDbSpline
 70
8
 71
3
 72
8
 73
4
 74
0
 40
0
 40
0
 40
0
 40
0
 40
1
 40
1
 40
1
 40
1
 10
67.892088
 20
69.004418
 30
0.0
 10
68.189960
 20
68.407990
 30
0.0
 10
68.530433
 20
67.920000
 30
0.0
 10
68.648696
 20
67.920000
 30
0.0
  0
SPLINE
  5
2df
100
AcDbEntity
  8
0
 62
7
100
AcDbSpline
 70
8
 71
3
 72
8
 73
4
 74
0
 40
0
 40
0
 40
0
 40
0
 40
1
 40
1
 40
1
 40
1
 10
68.648696
 20
67.920000
 30
0.0
 10
69.126332
 20
67.920000
 30
0.0
 10
70.560000
 20
68.748526
 30
0.0
 10
70.560000
 20
69.024554
 30
0.0
  0
SPLINE
  5
2e0
100
AcDbEntity
  8
0
 62
7
100
AcDbSpline
 70
8
 71
3
 72
8
 73
4
 74
0
 40
0
 40
0
 40
0
 40
0
 40
1
 40
1
 40
1
 40
1
 10
70.560000
 20
69.024554
 30
0.0
 10
70.560000
 20
69.767407
 30
0.0
 10
69.554484
 20
71.531122
 30
0.0
 10
68.428736
 20
72.762868
 30
0.0
  0
SPLINE
  5
2e1
100
AcDbEntity
  8
0
 62
7
100
AcDbSpline
 70
8
 71
3
 72
8
 73
4
 74
0
 40
0
 40
0
 40
0
 40
0
 40
1
 40
1
 40
1
 40
1
 10
68.428736
 20
72.762868
 30
0.0
 10
66.032299
 20
75.384950
 30
0.0
 10
63.363568
 20
76.560000
 30
0.0
 10
59.804825
 20
76.560000
 30
0.0
  0
SPLINE
  5
2e2
100
AcDbEntity
  8
0
 62
7
100
AcDbSpline
 70
8
 71
3
 72
8
 73
4
 74
0
 40
0
 40
0
 40
0
 40
0
 40
1
 40
1
 40
1
 40
1
 10
59.804825
 20
76.560000
 30
0.0
 10
55.483138
 20
76.560000
 30
0.0
 10
52.018620
 20
74.608913
 30
0.0
 10
49.815029
 20
70.934120
 30
0.0
  0
SPLINE
  5
2e3
100
AcDbEntity
  8
0
 62
7
100
AcDbSpline
 70
8
 71
3
 72
8
 73
4
 74
0
 40
0
 40
0
 40
0
 40
0
 40
1
 40
1
 40
1
 40
1
 10
49.815029
 20
70.934120
 30
0.0
 10
49.344763
 20
70.149884
 30
0.0
 10
48.960000
 20
69.334162
 30
0.0
 10
48.960000
 20
69.121402
 30
0.0
  0
SPLINE
  5
2e4
100
AcDbEntity
  8
0
 62
7
100
AcDbSpline
 70
8
 71
3
 72
8
 73
4
 74
0
 40
0
 40
0
 40
0
 40
0
 40
1
 40
1
 40
1
 40
1
 10
48.960000
 20
69.121402
 30
0.0
 10
48.960000
 20
68.906676
 30
0.0
 10
49.413816
 20
68.506591
 30
0.0
 10
49.980000
 20
68.222172
 30
0.0
  0
SPLINE
  5
2e5
100
AcDbEntity
  8
0
 62
7
100
AcDbSpline
 70
8
 71
3
 72
8
 73
4
 74
0
 40
0
 40
0
 40
0
 40
0
 40
1
 40
1
 40
1
 40
1
 10
49.980000
 20
68.222172
 30
0.0
 10
51.154872
 20
67.631976
 30
0.0
 10
51.360000
 20
67.587452
 30
0.0
 10
51.360000
 20
67.922616
 30
0.0
  0
LWPOLYLINE
  5
2e6
100
AcDbEntity
  8
0
 62
7
100
AcDbPolyline
 90
1
 70
1
 10
15.805822
 20
68.995406
 30
0.0
  0
SPLINE
  5
2e7
100
AcDbEntity
  8
0
 62
7
100
AcDbSpline
 70
8
 71
3
 72
8
 73
4
 74
0
 40
0
 40
0
 40
0
 40
0
 40
1
 40
1
 40
1
 40
1
 10
105.777562
 20
68.294978
 30
0.0
 10
106.337220
 20
68.550740
 30
0.0
 10
106.796220
 20
68.844590
 30
0.0
 10
106.797562
 20
68.947978
 30
0.0
  0
SPLINE
  5
2e8
100
AcDbEntity
  8
0
 62
7
100
AcDbSpline
 70
8
 71
3
 72
8
 73
4
 74
0
 40
0
 40
0
 40
0
 40
0
 40
1
 40
1
 40
1
 40
1
 10
106.797562
 20
68.947978
 30
0.0
 10
106.804312
 20
69.479978
 30
0.0
 10
105.423322
 20
71.730542
 30
0.0
 10
104.439810
 20
72.789920
 30
0.0
  0
SPLINE
  5
2e9
100
AcDbEntity
  8
0
 62
7
100
AcDbSpline
 70
8
 71
3
 72
8
 73
4
 74
0
 40
0
 40
0
 40
0
 40
0
 40
1
 40
1
 40
1
 40
1
 10
104.439810
 20
72.789920
 30
0.0
 10
101.853465
 20
75.575748
 30
0.0
 10
99.084480
 20
76.681880
 30
0.0
 10
95.097870
 20
76.521756
 30
0.0
  0
SPLINE
  5
2ea
100
AcDbEntity
  8
0
 62
7
100
AcDbSpline
 70
8
 71
3
 72
8
 73
4
 74
0
 40
0
 40
0
 40
0
 40
0
 40
1
 40
1
 40
1
 40
1
 10
95.097870
 20
76.521756
 30
0.0
 10
92.916525
 20
76.434142
 30
0.0
 10
92.545875
 20
76.346477
 30
0.0
 10
90.883958
 20
75.525113
 30
0.0
  0
SPLINE
  5
2eb
100
AcDbEntity
  8
0
 62
7
100
AcDbSpline
 70
8
 71
3
 72
8
 73
4
 74
0
 40
0
 40
0
 40
0
 40
0
 40
1
 40
1
 40
1
 40
1
 10
90.883958
 20
75.525113
 30
0.0
 10
89.881748
 20
75.029794
 30
0.0
 10
88.480942
 20
74.093698
 30
0.0
 10
87.771052
 20
73.444898
 30
0.0
  0
SPLINE
  5
2ec
100
AcDbEntity
  8
0
 62
7
100
AcDbSpline
 70
8
 71
3
 72
8
 73
4
 74
0
 40
0
 40
0
 40
0
 40
0
 40
1
 40
1
 40
1
 40
1
 10
87.771052
 20
73.444898
 30
0.0
 10
86.565675
 20
72.343250
 30
0.0
 10
84.960000
 20
69.844798
 30
0.0
 10
84.960000
 20
69.070856
 30
0.0
  0
SPLINE
  5
2ed
100
AcDbEntity
  8
0
 62
7
100
AcDbSpline
 70
8
 71
3
 72
8
 73
4
 74
0
 40
0
 40
0
 40
0
 40
0
 40
1
 40
1
 40
1
 40
1
 10
84.960000
 20
69.070856
 30
0.0
 10
84.960000
 20
68.765369
 30
0.0
 10
86.351272
 20
67.920000
 30
0.0
 10
86.854028
 20
67.920000
 30
0.0
  0
SPLINE
  5
2ee
100
AcDbEntity
  8
0
 62
7
100
AcDbSpline
 70
8
 71
3
 72
8
 73
4
 74
0
 40
0
 40
0
 40
0
 40
0
 40
1
 40
1
 40
1
 40
1
 10
86.854028
 20
67.920000
 30
0.0
 10
86.962793
 20
67.920000
 30
0.0
 10
87.442553
 20
68.553106
 30
0.0
 10
87.920167
 20
69.326902
 30
0.0
  0
SPLINE
  5
2ef
100
AcDbEntity
  8
0
 62
7
100
AcDbSpline
 70
8
 71
3
 72
8
 73
4
 74
0
 40
0
 40
0
 40
0
 40
0
 40
1
 40
1
 40
1
 40
1
 10
87.920167
 20
69.326902
 30
0.0
 10
89.007855
 20
71.089102
 30
0.0
 10
90.393270
 20
72.352666
 30
0.0
 10
92.131200
 20
73.167560
 30
0.0
  0
SPLINE
  5
2f0
100
AcDbEntity
  8
0
 62
7
100
AcDbSpline
 70
8
 71
3
 72
8
 73
4
 74
0
 40
0
 40
0
 40
0
 40
0
 40
1
 40
1
 40
1
 40
1
 10
92.131200
 20
73.167560
 30
0.0
 10
93.308355
 20
73.719518
 30
0.0
 10
93.785415
 20
73.799693
 30
0.0
 10
95.880000
 20
73.797581
 30
0.0
  0
SPLINE
  5
2f1
100
AcDbEntity
  8
0
 62
7
100
AcDbSpline
 70
8
 71
3
 72
8
 73
4
 74
0
 40
0
 40
0
 40
0
 40
0
 40
1
 40
1
 40
1
 40
1
 10
95.880000
 20
73.797581
 30
0.0
 10
98.004278
 20
73.795406
 30
0.0
 10
98.433713
 20
73.719900
 30
0.0
 10
99.617970
 20
73.140038
 30
0.0
  0
SPLINE
  5
2f2
100
AcDbEntity
  8
0
 62
7
100
AcDbSpline
 70
8
 71
3
 72
8
 73
4
 74
0
 40
0
 40
0
 40
0
 40
0
 40
1
 40
1
 40
1
 40
1
 10
99.617970
 20
73.140038
 30
0.0
 10
101.311073
 20
72.311021
 30
0.0
 10
102.931920
 20
70.720378
 30
0.0
 10
103.824870
 20
69.011532
 30
0.0
  0
SPLINE
  5
2f3
100
AcDbEntity
  8
0
 62
7
100
AcDbSpline
 70
8
 71
3
 72
8
 73
4
 74
0
 40
0
 40
0
 40
0
 40
0
 40
1
 40
1
 40
1
 40
1
 10
103.824870
 20
69.011532
 30
0.0
 10
104.207190
 20
68.279873
 30
0.0
 10
104.574000
 20
67.714704
 30
0.0
 10
104.640000
 20
67.755600
 30
0.0
  0
SPLINE
  5
2f4
100
AcDbEntity
  8
0
 62
7
100
AcDbSpline
 70
8
 71
3
 72
8
 73
4
 74
0
 40
0
 40
0
 40
0
 40
0
 40
1
 40
1
 40
1
 40
1
 10
104.640000
 20
67.755600
 30
0.0
 10
104.706000
 20
67.796498
 30
0.0
 10
105.217897
 20
68.039215
 30
0.0
 10
105.777562
 20
68.294978
 30
0.0
  0
LWPOLYLINE
  5
2f5
100
AcDbEntity
  8
0
 62
7
100
AcDbPolyline
 90
1
 70
1
 10
51.360000
 20
67.922616
 30
0.0
  0
SPLINE
  5
2f6
100
AcDbEntity
  8
0
 62
7
100
AcDbSpline
 70
8
 71
3
 72
8
 73
4
 74
0
 40
0
 40
0
 40
0
 40
0
 40
1
 40
1
 40
1
 40
1
 10
38.040000
 20
69.840398
 30
0.0
 10
39.014342
 20
69.854513
 30
0.0
 10
39.148694
 20
70.147048
 30
0.0
 10
38.707358
 20
71.293516
 30
0.0
  0
SPLINE
  5
2f7
100
AcDbEntity
  8
0
 62
7
100
AcDbSpline
 70
8
 71
3
 72
8
 73
4
 74
0
 40
0
 40
0
 40
0
 40
0
 40
1
 40
1
 40
1
 40
1
 10
38.707358
 20
71.293516
 30
0.0
 10
37.211791
 20
75.178582
 30
0.0
 10
33.567965
 20
78.601567
 30
0.0
 10
29.225556
 20
80.200654
 30
0.0
  0
SPLINE
  5
2f8
100
AcDbEntity
  8
0
 62
7
100
AcDbSpline
 70
8
 71
3
 72
8
 73
4
 74
0
 40
0
 40
0
 40
0
 40
0
 40
1
 40
1
 40
1
 40
1
 10
29.225556
 20
80.200654
 30
0.0
 10
26.613072
 20
81.162696
 30
0.0
 10
23.077039
 20
81.390002
 30
0.0
 10
20.307818
 20
80.773910
 30
0.0
  0
SPLINE
  5
2f9
100
AcDbEntity
  8
0
 62
7
100
AcDbSpline
 70
8
 71
3
 72
8
 73
4
 74
0
 40
0
 40
0
 40
0
 40
0
 40
1
 40
1
 40
1
 40
1
 10
20.307818
 20
80.773910
 30
0.0
 10
18.097588
 20
80.282179
 30
0.0
 10
15.082124
 20
78.823654
 30
0.0
 10
13.707097
 20
77.581260
 30
0.0
  0
SPLINE
  5
2fa
100
AcDbEntity
  8
0
 62
7
100
AcDbSpline
 70
8
 71
3
 72
8
 73
4
 74
0
 40
0
 40
0
 40
0
 40
0
 40
1
 40
1
 40
1
 40
1
 10
13.707097
 20
77.581260
 30
0.0
 10
12.756776
 20
76.722604
 30
0.0
 10
12.697459
 20
76.586758
 30
0.0
 10
12.452299
 20
74.707538
 30
0.0
  0
SPLINE
  5
2fb
100
AcDbEntity
  8
0
 62
7
100
AcDbSpline
 70
8
 71
3
 72
8
 73
4
 74
0
 40
0
 40
0
 40
0
 40
0
 40
1
 40
1
 40
1
 40
1
 10
12.452299
 20
74.707538
 30
0.0
 10
12.310771
 20
73.622686
 30
0.0
 10
12.236104
 20
72.611688
 30
0.0
 10
12.286373
 20
72.460882
 30
0.0
  0
SPLINE
  5
2fc
100
AcDbEntity
  8
0
 62
7
100
AcDbSpline
 70
8
 71
3
 72
8
 73
4
 74
0
 40
0
 40
0
 40
0
 40
0
 40
1
 40
1
 40
1
 40
1
 10
12.286373
 20
72.460882
 30
0.0
 10
12.336646
 20
72.310072
 30
0.0
 10
12.683629
 20
72.628036
 30
0.0
 10
13.057454
 20
73.167466
 30
0.0
  0
SPLINE
  5
2fd
100
AcDbEntity
  8
0
 62
7
100
AcDbSpline
 70
8
 71
3
 72
8
 73
4
 74
0
 40
0
 40
0
 40
0
 40
0
 40
1
 40
1
 40
1
 40
1
 10
13.057454
 20
73.167466
 30
0.0
 10
14.562653
 20
75.339470
 30
0.0
 10
18.153591
 20
77.600160
 30
0.0
 10
21.071813
 20
78.212940
 30
0.0
  0
SPLINE
  5
2fe
100
AcDbEntity
  8
0
 62
7
100
AcDbSpline
 70
8
 71
3
 72
8
 73
4
 74
0
 40
0
 40
0
 40
0
 40
0
 40
1
 40
1
 40
1
 40
1
 10
21.071813
 20
78.212940
 30
0.0
 10
25.162356
 20
79.071888
 30
0.0
 10
29.700716
 20
77.819940
 30
0.0
 10
32.859830
 20
74.961106
 30
0.0
  0
SPLINE
  5
2ff
100
AcDbEntity
  8
0
 62
7
100
AcDbSpline
 70
8
 71
3
 72
8
 73
4
 74
0
 40
0
 40
0
 40
0
 40
0
 40
1
 40
1
 40
1
 40
1
 10
32.859830
 20
74.961106
 30
0.0
 10
34.209742
 20
73.739503
 30
0.0
 10
36.480000
 20
70.535431
 30
0.0
 10
36.480000
 20
69.851866
 30
0.0
  0
SPLINE
  5
300
100
AcDbEntity
  8
0
 62
7
100
AcDbSpline
 70
8
 71
3
 72
8
 73
4
 74
0
 40
0
 40
0
 40
0
 40
0
 40
1
 40
1
 40
1
 40
1
 10
36.480000
 20
69.851866
 30
0.0
 10
36.480000
 20
69.649738
 30
0.0
 10
36.665446
 20
69.593714
 30
0.0
 10
37.020000
 20
69.688730
 30
0.0
  0
SPLINE
  5
301
100
AcDbEntity
  8
0
 62
7
100
AcDbSpline
 70
8
 71
3
 72
8
 73
4
 74
0
 40
0
 40
0
 40
0
 40
0
 40
1
 40
1
 40
1
 40
1
 10
37.020000
 20
69.688730
 30
0.0
 10
37.317000
 20
69.768324
 30
0.0
 10
37.776000
 20
69.836575
 30
0.0
 10
38.040000
 20
69.840398
 30
0.0
  0
LWPOLYLINE
  5
302
100
AcDbEntity
  8
0
 62
7
100
AcDbPolyline
 90
1
 70
1
 10
105.777562
 20
68.294978
 30
0.0
  0
SPLINE
  5
303
100
AcDbEntity
  8
0
 62
7
100
AcDbSpline
 70
8
 71
3
 72
8
 73
4
 74
0
 40
0
 40
0
 40
0
 40
0
 40
1
 40
1
 40
1
 40
1
 10
47.880000
 20
71.327357
 30
0.0
 10
51.806143
 20
78.346349
 30
0.0
 10
60.706632
 20
80.579196
 30
0.0
 10
67.303888
 20
76.200187
 30
0.0
  0
SPLINE
  5
304
100
AcDbEntity
  8
0
 62
7
100
AcDbSpline
 70
8
 71
3
 72
8
 73
4
 74
0
 40
0
 40
0
 40
0
 40
0
 40
1
 40
1
 40
1
 40
1
 10
67.303888
 20
76.200187
 30
0.0
 10
69.275904
 20
74.891237
 30
0.0
 10
71.847046
 20
71.799130
 30
0.0
 10
72.352788
 20
70.128278
 30
0.0
  0
SPLINE
  5
305
100
AcDbEntity
  8
0
 62
7
100
AcDbSpline
 70
8
 71
3
 72
8
 73
4
 74
0
 40
0
 40
0
 40
0
 40
0
 40
1
 40
1
 40
1
 40
1
 10
72.352788
 20
70.128278
 30
0.0
 10
72.505860
 20
69.622565
 30
0.0
 10
72.613196
 20
69.589879
 30
0.0
 10
73.639894
 20
69.736322
 30
0.0
  0
SPLINE
  5
306
100
AcDbEntity
  8
0
 62
7
100
AcDbSpline
 70
8
 71
3
 72
8
 73
4
 74
0
 40
0
 40
0
 40
0
 40
0
 40
1
 40
1
 40
1
 40
1
 10
73.639894
 20
69.736322
 30
0.0
 10
74.255952
 20
69.824196
 30
0.0
 10
74.855764
 20
69.984634
 30
0.0
 10
74.972808
 20
70.092854
 30
0.0
  0
SPLINE
  5
307
100
AcDbEntity
  8
0
 62
7
100
AcDbSpline
 70
8
 71
3
 72
8
 73
4
 74
0
 40
0
 40
0
 40
0
 40
0
 40
1
 40
1
 40
1
 40
1
 10
74.972808
 20
70.092854
 30
0.0
 10
75.335925
 20
70.428592
 30
0.0
 10
73.277988
 20
74.195836
 30
0.0
 10
71.872216
 20
75.768770
 30
0.0
  0
SPLINE
  5
308
100
AcDbEntity
  8
0
 62
7
100
AcDbSpline
 70
8
 71
3
 72
8
 73
4
 74
0
 40
0
 40
0
 40
0
 40
0
 40
1
 40
1
 40
1
 40
1
 10
71.872216
 20
75.768770
 30
0.0
 10
66.075878
 20
82.254358
 30
0.0
 10
55.730006
 20
82.919542
 30
0.0
 10
49.276946
 20
77.221526
 30
0.0
  0
SPLINE
  5
309
100
AcDbEntity
  8
0
 62
7
100
AcDbSpline
 70
8
 71
3
 72
8
 73
4
 74
0
 40
0
 40
0
 40
0
 40
0
 40
1
 40
1
 40
1
 40
1
 10
49.276946
 20
77.221526
 30
0.0
 10
47.134483
 20
75.329740
 30
0.0
 10
46.023612
 20
73.733708
 30
0.0
 10
44.601727
 20
70.504433
 30
0.0
  0
SPLINE
  5
30a
100
AcDbEntity
  8
0
 62
7
100
AcDbSpline
 70
8
 71
3
 72
8
 73
4
 74
0
 40
0
 40
0
 40
0
 40
0
 40
1
 40
1
 40
1
 40
1
 10
44.601727
 20
70.504433
 30
0.0
 10
44.457178
 20
70.176146
 30
0.0
 10
44.580607
 20
70.042075
 30
0.0
 10
45.189374
 20
69.866078
 30
0.0
  0
SPLINE
  5
30b
100
AcDbEntity
  8
0
 62
7
100
AcDbSpline
 70
8
 71
3
 72
8
 73
4
 74
0
 40
0
 40
0
 40
0
 40
0
 40
1
 40
1
 40
1
 40
1
 10
45.189374
 20
69.866078
 30
0.0
 10
46.713847
 20
69.425354
 30
0.0
 10
46.860710
 20
69.505116
 30
0.0
 10
47.880000
 20
71.327356
 30
0.0
  0
LWPOLYLINE
  5
30c
100
AcDbEntity
  8
0
 62
7
100
AcDbPolyline
 90
1
 70
1
 10
38.040000
 20
69.840398
 30
0.0
  0
SPLINE
  5
30d
100
AcDbEntity
  8
0
 62
7
100
AcDbSpline
 70
8
 71
3
 72
8
 73
4
 74
0
 40
0
 40
0
 40
0
 40
0
 40
1
 40
1
 40
1
 40
1
 10
83.949322
 20
71.282034
 30
0.0
 10
85.419555
 20
74.364770
 30
0.0
 10
88.853512
 20
77.112059
 30
0.0
 10
92.400000
 20
78.042887
 30
0.0
  0
SPLINE
  5
30e
100
AcDbEntity
  8
0
 62
7
100
AcDbSpline
 70
8
 71
3
 72
8
 73
4
 74
0
 40
0
 40
0
 40
0
 40
0
 40
1
 40
1
 40
1
 40
1
 10
92.400000
 20
78.042887
 30
0.0
 10
95.481712
 20
78.851726
 30
0.0
 10
98.942363
 20
78.465330
 30
0.0
 10
101.987310
 20
76.972427
 30
0.0
  0
SPLINE
  5
30f
100
AcDbEntity
  8
0
 62
7
100
AcDbSpline
 70
8
 71
3
 72
8
 73
4
 74
0
 40
0
 40
0
 40
0
 40
0
 40
1
 40
1
 40
1
 40
1
 10
101.987310
 20
76.972427
 30
0.0
 10
104.102520
 20
75.935361
 30
0.0
 10
106.677128
 20
73.374510
 30
0.0
 10
107.774438
 20
71.216214
 30
0.0
  0
LWPOLYLINE
  5
310
100
AcDbEntity
  8
0
 62
7
100
AcDbPolyline
 90
1
 70
1
 10
47.880000
 20
71.327356
 30
0.0
  0
SPLINE
  5
311
100
AcDbEntity
  8
0
 62
7
100
AcDbSpline
 70
8
 71
3
 72
8
 73
4
 74
0
 40
0
 40
0
 40
0
 40
0
 40
1
 40
1
 40
1
 40
1
 10
109.680000
 20
69.744258
 30
0.0
 10
110.274000
 20
69.827766
 30
0.0
 10
110.859135
 20
69.988007
 30
0.0
 10
110.980305
 20
70.100349
 30
0.0
  0
SPLINE
  5
312
100
AcDbEntity
  8
0
 62
7
100
AcDbSpline
 70
8
 71
3
 72
8
 73
4
 74
0
 40
0
 40
0
 40
0
 40
0
 40
1
 40
1
 40
1
 40
1
 10
110.980305
 20
70.100349
 30
0.0
 10
111.340913
 20
70.434698
 30
0.0
 10
109.587960
 20
73.670169
 30
0.0
 10
108.061470
 20
75.487694
 30
0.0
  0
SPLINE
  5
313
100
AcDbEntity
  8
0
 62
7
100
AcDbSpline
 70
8
 71
3
 72
8
 73
4
 74
0
 40
0
 40
0
 40
0
 40
0
 40
1
 40
1
 40
1
 40
1
 10
108.061470
 20
75.487694
 30
0.0
 10
103.342185
 20
81.106761
 30
0.0
 10
95.212935
 20
82.724990
 30
0.0
 10
88.491150
 20
79.383412
 30
0.0
  0
SPLINE
  5
314
100
AcDbEntity
  8
0
 62
7
100
AcDbSpline
 70
8
 71
3
 72
8
 73
4
 74
0
 40
0
 40
0
 40
0
 40
0
 40
1
 40
1
 40
1
 40
1
 10
88.491150
 20
79.383412
 30
0.0
 10
85.887128
 20
78.088881
 30
0.0
 10
82.840343
 20
75.098721
 30
0.0
 10
81.511748
 20
72.533718
 30
0.0
  0
SPLINE
  5
315
100
AcDbEntity
  8
0
 62
7
100
AcDbSpline
 70
8
 71
3
 72
8
 73
4
 74
0
 40
0
 40
0
 40
0
 40
0
 40
1
 40
1
 40
1
 40
1
 10
81.511748
 20
72.533718
 30
0.0
 10
81.014258
 20
71.573265
 30
0.0
 10
80.642918
 20
70.602095
 30
0.0
 10
80.686545
 20
70.375569
 30
0.0
  0
SPLINE
  5
316
100
AcDbEntity
  8
0
 62
7
100
AcDbSpline
 70
8
 71
3
 72
8
 73
4
 74
0
 40
0
 40
0
 40
0
 40
0
 40
1
 40
1
 40
1
 40
1
 10
80.686545
 20
70.375569
 30
0.0
 10
80.731245
 20
70.143311
 30
0.0
 10
81.078563
 20
69.896781
 30
0.0
 10
81.482933
 20
69.810246
 30
0.0
  0
SPLINE
  5
317
100
AcDbEntity
  8
0
 62
7
100
AcDbSpline
 70
8
 71
3
 72
8
 73
4
 74
0
 40
0
 40
0
 40
0
 40
0
 40
1
 40
1
 40
1
 40
1
 10
81.482933
 20
69.810246
 30
0.0
 10
83.022345
 20
69.480810
 30
0.0
 10
83.117295
 20
69.537470
 30
0.0
 10
83.949323
 20
71.282034
 30
0.0
  0
LWPOLYLINE
  5
318
100
AcDbEntity
  8
0
 62
7
100
AcDbPolyline
 90
3
 70
0
 10
107.774438
 20
71.216214
 30
0.0
 10
108.600000
 20
69.592427
 30
0.0
 10
109.680000
 20
69.744258
 30
0.0
  0
SPLINE
  5
319
100
AcDbEntity
  8
0
 62
7
100
AcDbSpline
 70
8
 71
3
 72
8
 73
4
 74
0
 40
0
 40
0
 40
0
 40
0
 40
1
 40
1
 40
1
 40
1
 10
119.393835
 20
70.308083
 30
0.0
 10
119.777947
 20
71.050873
 30
0.0
 10
119.851072
 20
72.895427
 30
0.0
 10
119.560815
 20
74.520002
 30
0.0
  0
LWPOLYLINE
  5
31a
100
AcDbEntity
  8
0
 62
7
100
AcDbPolyline
 90
1
 70
1
 10
83.949323
 20
71.282034
 30
0.0
  0
SPLINE
  5
31b
100
AcDbEntity
  8
0
 62
7
100
AcDbSpline
 70
8
 71
3
 72
8
 73
4
 74
0
 40
0
 40
0
 40
0
 40
0
 40
1
 40
1
 40
1
 40
1
 10
118.607400
 20
74.346225
 30
0.0
 10
117.750435
 20
73.103596
 30
0.0
 10
116.353545
 20
70.286454
 30
0.0
 10
116.514525
 20
70.125474
 30
0.0
  0
SPLINE
  5
31c
100
AcDbEntity
  8
0
 62
7
100
AcDbSpline
 70
8
 71
3
 72
8
 73
4
 74
0
 40
0
 40
0
 40
0
 40
0
 40
1
 40
1
 40
1
 40
1
 10
116.514525
 20
70.125474
 30
0.0
 10
116.642970
 20
69.997031
 30
0.0
 10
118.068232
 20
69.656958
 30
0.0
 10
118.613835
 20
69.624568
 30
0.0
  0
SPLINE
  5
31d
100
AcDbEntity
  8
0
 62
7
100
AcDbSpline
 70
8
 71
3
 72
8
 73
4
 74
0
 40
0
 40
0
 40
0
 40
0
 40
1
 40
1
 40
1
 40
1
 10
118.613835
 20
69.624568
 30
0.0
 10
118.844767
 20
69.610865
 30
0.0
 10
119.189505
 20
69.912954
 30
0.0
 10
119.393835
 20
70.308083
 30
0.0
  0
LWPOLYLINE
  5
31e
100
AcDbEntity
  8
0
 62
7
100
AcDbPolyline
 90
3
 70
0
 10
119.560815
 20
74.520002
 30
0.0
 10
119.389297
 20
75.480002
 30
0.0
 10
118.607400
 20
74.346225
 30
0.0
  0
SPLINE
  5
31f
100
AcDbEntity
  8
0
 62
7
100
AcDbSpline
 70
8
 71
3
 72
8
 73
4
 74
0
 40
0
 40
0
 40
0
 40
0
 40
1
 40
1
 40
1
 40
1
 10
42.833836
 20
71.028083
 30
0.0
 10
43.035226
 20
71.417528
 30
0.0
 10
43.200000
 20
71.870036
 30
0.0
 10
43.200000
 20
72.033655
 30
0.0
  0
SPLINE
  5
320
100
AcDbEntity
  8
0
 62
7
100
AcDbSpline
 70
8
 71
3
 72
8
 73
4
 74
0
 40
0
 40
0
 40
0
 40
0
 40
1
 40
1
 40
1
 40
1
 10
43.200000
 20
72.033655
 30
0.0
 10
43.200000
 20
72.576590
 30
0.0
 10
45.195110
 20
75.643500
 30
0.0
 10
46.420550
 20
76.984328
 30
0.0
  0
LWPOLYLINE
  5
321
100
AcDbEntity
  8
0
 62
7
100
AcDbPolyline
 90
1
 70
1
 10
119.393835
 20
70.308083
 30
0.0
  0
SPLINE
  5
322
100
AcDbEntity
  8
0
 62
7
100
AcDbSpline
 70
8
 71
3
 72
8
 73
4
 74
0
 40
0
 40
0
 40
0
 40
0
 40
1
 40
1
 40
1
 40
1
 10
46.490758
 20
79.334215
 30
0.0
 10
43.798572
 20
81.771607
 30
0.0
 10
39.734575
 20
81.709277
 30
0.0
 10
36.861314
 20
79.186522
 30
0.0
  0
LWPOLYLINE
  5
323
100
AcDbEntity
  8
0
 62
7
100
AcDbPolyline
 90
3
 70
0
 10
46.420550
 20
76.984328
 30
0.0
 10
47.627566
 20
78.304994
 30
0.0
 10
46.490758
 20
79.334215
 30
0.0
  0
SPLINE
  5
324
100
AcDbEntity
  8
0
 62
7
100
AcDbSpline
 70
8
 71
3
 72
8
 73
4
 74
0
 40
0
 40
0
 40
0
 40
0
 40
1
 40
1
 40
1
 40
1
 10
37.570015
 20
76.547594
 30
0.0
 10
39.117260
 20
74.631134
 30
0.0
 10
40.553548
 20
72.365954
 30
0.0
 10
40.557748
 20
71.835624
 30
0.0
  0
SPLINE
  5
325
100
AcDbEntity
  8
0
 62
7
100
AcDbSpline
 70
8
 71
3
 72
8
 73
4
 74
0
 40
0
 40
0
 40
0
 40
0
 40
1
 40
1
 40
1
 40
1
 10
40.557748
 20
71.835624
 30
0.0
 10
40.558948
 20
71.679216
 30
0.0
 10
40.665326
 20
71.274216
 30
0.0
 10
40.794060
 20
70.935624
 30
0.0
  0
SPLINE
  5
326
100
AcDbEntity
  8
0
 62
7
100
AcDbSpline
 70
8
 71
3
 72
8
 73
4
 74
0
 40
0
 40
0
 40
0
 40
0
 40
1
 40
1
 40
1
 40
1
 10
40.794060
 20
70.935624
 30
0.0
 10
41.143915
 20
70.015432
 30
0.0
 10
42.338170
 20
70.069564
 30
0.0
 10
42.833836
 20
71.028082
 30
0.0
  0
LWPOLYLINE
  5
327
100
AcDbEntity
  8
0
 62
7
100
AcDbPolyline
 90
3
 70
0
 10
36.861314
 20
79.186522
 30
0.0
 10
36.029285
 20
78.455988
 30
0.0
 10
37.570015
 20
76.547594
 30
0.0
  0
SPLINE
  5
328
100
AcDbEntity
  8
0
 62
7
100
AcDbSpline
 70
8
 71
3
 72
8
 73
4
 74
0
 40
0
 40
0
 40
0
 40
0
 40
1
 40
1
 40
1
 40
1
 10
78.720000
 20
70.655604
 30
0.0
 10
78.720000
 20
71.453959
 30
0.0
 10
80.963242
 20
75.351586
 30
0.0
 10
82.242150
 20
76.775338
 30
0.0
  0
LWPOLYLINE
  5
329
100
AcDbEntity
  8
0
 62
7
100
AcDbPolyline
 90
1
 70
1
 10
42.833836
 20
71.028082
 30
0.0
  0
SPLINE
  5
32a
100
AcDbEntity
  8
0
 62
7
100
AcDbSpline
 70
8
 71
3
 72
8
 73
4
 74
0
 40
0
 40
0
 40
0
 40
0
 40
1
 40
1
 40
1
 40
1
 10
82.487625
 20
79.337052
 30
0.0
 10
79.798275
 20
81.771878
 30
0.0
 10
75.476812
 20
81.688584
 30
0.0
 10
72.804100
 20
79.150406
 30
0.0
  0
LWPOLYLINE
  5
32b
100
AcDbEntity
  8
0
 62
7
100
AcDbPolyline
 90
3
 70
0
 10
82.242150
 20
76.775338
 30
0.0
 10
83.621295
 20
78.310672
 30
0.0
 10
82.487625
 20
79.337052
 30
0.0
  0
SPLINE
  5
32c
100
AcDbEntity
  8
0
 62
7
100
AcDbSpline
 70
8
 71
3
 72
8
 73
4
 74
0
 40
0
 40
0
 40
0
 40
0
 40
1
 40
1
 40
1
 40
1
 10
73.558109
 20
76.562342
 30
0.0
 10
74.846724
 20
74.966224
 30
0.0
 10
76.413720
 20
72.228304
 30
0.0
 10
76.890412
 20
70.740000
 30
0.0
  0
SPLINE
  5
32d
100
AcDbEntity
  8
0
 62
7
100
AcDbSpline
 70
8
 71
3
 72
8
 73
4
 74
0
 40
0
 40
0
 40
0
 40
0
 40
1
 40
1
 40
1
 40
1
 10
76.890412
 20
70.740000
 30
0.0
 10
77.060655
 20
70.208476
 30
0.0
 10
78.720000
 20
70.131934
 30
0.0
 10
78.720000
 20
70.655604
 30
0.0
  0
LWPOLYLINE
  5
32e
100
AcDbEntity
  8
0
 62
7
100
AcDbPolyline
 90
3
 70
0
 10
72.804100
 20
79.150406
 30
0.0
 10
72.048202
 20
78.432556
 30
0.0
 10
73.558109
 20
76.562342
 30
0.0
  0
SPLINE
  5
32f
100
AcDbEntity
  8
0
 62
7
100
AcDbSpline
 70
8
 71
3
 72
8
 73
4
 74
0
 40
0
 40
0
 40
0
 40
0
 40
1
 40
1
 40
1
 40
1
 10
115.015958
 20
71.460000
 30
0.0
 10
115.553798
 20
72.960485
 30
0.0
 10
117.016605
 20
75.408636
 30
0.0
 10
118.140000
 20
76.688388
 30
0.0
  0
SPLINE
  5
330
100
AcDbEntity
  8
0
 62
7
100
AcDbSpline
 70
8
 71
3
 72
8
 73
4
 74
0
 40
0
 40
0
 40
0
 40
0
 40
1
 40
1
 40
1
 40
1
 10
118.140000
 20
76.688388
 30
0.0
 10
119.259038
 20
77.963184
 30
0.0
 10
119.272627
 20
78.563928
 30
0.0
 10
118.205175
 20
79.570648
 30
0.0
  0
SPLINE
  5
331
100
AcDbEntity
  8
0
 62
7
100
AcDbSpline
 70
8
 71
3
 72
8
 73
4
 74
0
 40
0
 40
0
 40
0
 40
0
 40
1
 40
1
 40
1
 40
1
 10
118.205175
 20
79.570648
 30
0.0
 10
115.875293
 20
81.768010
 30
0.0
 10
111.601335
 20
81.592306
 30
0.0
 10
108.861300
 20
79.186522
 30
0.0
  0
LWPOLYLINE
  5
332
100
AcDbEntity
  8
0
 62
7
100
AcDbPolyline
 90
1
 70
1
 10
78.720000
 20
70.655604
 30
0.0
  0
SPLINE
  5
333
100
AcDbEntity
  8
0
 62
7
100
AcDbSpline
 70
8
 71
3
 72
8
 73
4
 74
0
 40
0
 40
0
 40
0
 40
0
 40
1
 40
1
 40
1
 40
1
 10
109.604918
 20
76.504346
 30
0.0
 10
111.020618
 20
74.750820
 30
0.0
 10
112.521368
 20
72.131368
 30
0.0
 10
112.866548
 20
70.811400
 30
0.0
  0
SPLINE
  5
334
100
AcDbEntity
  8
0
 62
7
100
AcDbSpline
 70
8
 71
3
 72
8
 73
4
 74
0
 40
0
 40
0
 40
0
 40
0
 40
1
 40
1
 40
1
 40
1
 10
112.866548
 20
70.811400
 30
0.0
 10
112.963868
 20
70.439236
 30
0.0
 10
113.190653
 20
70.320000
 30
0.0
 10
113.801183
 20
70.320000
 30
0.0
  0
SPLINE
  5
335
100
AcDbEntity
  8
0
 62
7
100
AcDbSpline
 70
8
 71
3
 72
8
 73
4
 74
0
 40
0
 40
0
 40
0
 40
0
 40
1
 40
1
 40
1
 40
1
 10
113.801183
 20
70.320000
 30
0.0
 10
114.545535
 20
70.320000
 30
0.0
 10
114.638640
 20
70.407368
 30
0.0
 10
115.015943
 20
71.460000
 30
0.0
  0
LWPOLYLINE
  5
336
100
AcDbEntity
  8
0
 62
7
100
AcDbPolyline
 90
3
 70
0
 10
108.861300
 20
79.186522
 30
0.0
 10
108.029273
 20
78.455988
 30
0.0
 10
109.604918
 20
76.504346
 30
0.0
  0
SPLINE
  5
337
100
AcDbEntity
  8
0
 62
7
100
AcDbSpline
 70
8
 71
3
 72
8
 73
4
 74
0
 40
0
 40
0
 40
0
 40
0
 40
1
 40
1
 40
1
 40
1
 10
35.579726
 20
80.436622
 30
0.0
 10
36.140875
 20
80.984762
 30
0.0
 10
37.302000
 20
81.766582
 30
0.0
 10
38.160000
 20
82.173998
 30
0.0
  0
SPLINE
  5
338
100
AcDbEntity
  8
0
 62
7
100
AcDbSpline
 70
8
 71
3
 72
8
 73
4
 74
0
 40
0
 40
0
 40
0
 40
0
 40
1
 40
1
 40
1
 40
1
 10
38.160000
 20
82.173998
 30
0.0
 10
39.536378
 20
82.827564
 30
0.0
 10
39.960120
 20
82.912992
 30
0.0
 10
41.760000
 20
82.899778
 30
0.0
  0
SPLINE
  5
339
100
AcDbEntity
  8
0
 62
7
100
AcDbSpline
 70
8
 71
3
 72
8
 73
4
 74
0
 40
0
 40
0
 40
0
 40
0
 40
1
 40
1
 40
1
 40
1
 10
41.760000
 20
82.899778
 30
0.0
 10
44.342540
 20
82.880818
 30
0.0
 10
45.975881
 20
82.275218
 30
0.0
 10
47.779066
 20
80.668066
 30
0.0
  0
LWPOLYLINE
  5
33a
100
AcDbEntity
  8
0
 62
7
100
AcDbPolyline
 90
1
 70
1
 10
115.015943
 20
71.460000
 30
0.0
  0
SPLINE
  5
33b
100
AcDbEntity
  8
0
 62
7
100
AcDbSpline
 70
8
 71
3
 72
8
 73
4
 74
0
 40
0
 40
0
 40
0
 40
0
 40
1
 40
1
 40
1
 40
1
 10
50.108290
 20
80.091262
 30
0.0
 10
50.664730
 20
80.419874
 30
0.0
 10
51.120000
 20
80.808770
 30
0.0
 10
51.120000
 20
80.955476
 30
0.0
  0
SPLINE
  5
33c
100
AcDbEntity
  8
0
 62
7
100
AcDbSpline
 70
8
 71
3
 72
8
 73
4
 74
0
 40
0
 40
0
 40
0
 40
0
 40
1
 40
1
 40
1
 40
1
 10
51.120000
 20
80.955476
 30
0.0
 10
51.120000
 20
81.451649
 30
0.0
 10
48.568870
 20
83.638598
 30
0.0
 10
47.219086
 20
84.299522
 30
0.0
  0
SPLINE
  5
33d
100
AcDbEntity
  8
0
 62
7
100
AcDbSpline
 70
8
 71
3
 72
8
 73
4
 74
0
 40
0
 40
0
 40
0
 40
0
 40
1
 40
1
 40
1
 40
1
 10
47.219086
 20
84.299522
 30
0.0
 10
42.086512
 20
86.812697
 30
0.0
 10
36.777070
 20
85.789860
 30
0.0
 10
32.922142
 20
81.545290
 30
0.0
  0
LWPOLYLINE
  5
33e
100
AcDbEntity
  8
0
 62
7
100
AcDbPolyline
 90
3
 70
0
 10
47.779066
 20
80.668066
 30
0.0
 10
49.096580
 20
79.493784
 30
0.0
 10
50.108290
 20
80.091262
 30
0.0
  0
SPLINE
  5
33f
100
AcDbEntity
  8
0
 62
7
100
AcDbSpline
 70
8
 71
3
 72
8
 73
4
 74
0
 40
0
 40
0
 40
0
 40
0
 40
1
 40
1
 40
1
 40
1
 10
33.402142
 20
80.196224
 30
0.0
 10
33.972962
 20
79.792070
 30
0.0
 10
34.466876
 20
79.456586
 30
0.0
 10
34.499726
 20
79.450702
 30
0.0
  0
SPLINE
  5
340
100
AcDbEntity
  8
0
 62
7
100
AcDbSpline
 70
8
 71
3
 72
8
 73
4
 74
0
 40
0
 40
0
 40
0
 40
0
 40
1
 40
1
 40
1
 40
1
 10
34.499726
 20
79.450702
 30
0.0
 10
34.532576
 20
79.444852
 30
0.0
 10
35.018575
 20
79.888478
 30
0.0
 10
35.579726
 20
80.436622
 30
0.0
  0
LWPOLYLINE
  5
341
100
AcDbEntity
  8
0
 62
7
100
AcDbPolyline
 90
3
 70
0
 10
32.922142
 20
81.545290
 30
0.0
 10
32.364280
 20
80.931044
 30
0.0
 10
33.402142
 20
80.196224
 30
0.0
  0
SPLINE
  5
342
100
AcDbEntity
  8
0
 62
7
100
AcDbSpline
 70
8
 71
3
 72
8
 73
4
 74
0
 40
0
 40
0
 40
0
 40
0
 40
1
 40
1
 40
1
 40
1
 10
71.543700
 20
80.423707
 30
0.0
 10
72.801440
 20
81.681446
 30
0.0
 10
75.092783
 20
82.754351
 30
0.0
 10
76.931565
 20
82.946543
 30
0.0
  0
SPLINE
  5
343
100
AcDbEntity
  8
0
 62
7
100
AcDbSpline
 70
8
 71
3
 72
8
 73
4
 74
0
 40
0
 40
0
 40
0
 40
0
 40
1
 40
1
 40
1
 40
1
 10
76.931565
 20
82.946543
 30
0.0
 10
79.489403
 20
83.213889
 30
0.0
 10
82.426883
 20
82.150670
 30
0.0
 10
84.208268
 20
80.312747
 30
0.0
  0
LWPOLYLINE
  5
344
100
AcDbEntity
  8
0
 62
7
100
AcDbPolyline
 90
1
 70
1
 10
35.579726
 20
80.436622
 30
0.0
  0
SPLINE
  5
345
100
AcDbEntity
  8
0
 62
7
100
AcDbSpline
 70
8
 71
3
 72
8
 73
4
 74
0
 40
0
 40
0
 40
0
 40
0
 40
1
 40
1
 40
1
 40
1
 10
86.066085
 20
80.119922
 30
0.0
 10
86.645738
 20
80.470036
 30
0.0
 10
87.120000
 20
80.861284
 30
0.0
 10
87.120000
 20
80.989353
 30
0.0
  0
SPLINE
  5
346
100
AcDbEntity
  8
0
 62
7
100
AcDbSpline
 70
8
 71
3
 72
8
 73
4
 74
0
 40
0
 40
0
 40
0
 40
0
 40
1
 40
1
 40
1
 40
1
 10
87.120000
 20
80.989353
 30
0.0
 10
87.120000
 20
81.461647
 30
0.0
 10
84.425993
 20
83.750689
 30
0.0
 10
83.171910
 20
84.343965
 30
0.0
  0
SPLINE
  5
347
100
AcDbEntity
  8
0
 62
7
100
AcDbSpline
 70
8
 71
3
 72
8
 73
4
 74
0
 40
0
 40
0
 40
0
 40
0
 40
1
 40
1
 40
1
 40
1
 10
83.171910
 20
84.343965
 30
0.0
 10
79.479645
 20
86.090685
 30
0.0
 10
76.107720
 20
86.100167
 30
0.0
 10
72.600000
 20
84.373695
 30
0.0
  0
SPLINE
  5
348
100
AcDbEntity
  8
0
 62
7
100
AcDbSpline
 70
8
 71
3
 72
8
 73
4
 74
0
 40
0
 40
0
 40
0
 40
0
 40
1
 40
1
 40
1
 40
1
 10
72.600000
 20
84.373695
 30
0.0
 10
70.858934
 20
83.516756
 30
0.0
 10
68.003474
 20
80.925397
 30
0.0
 10
68.568494
 20
80.715063
 30
0.0
  0
SPLINE
  5
349
100
AcDbEntity
  8
0
 62
7
100
AcDbSpline
 70
8
 71
3
 72
8
 73
4
 74
0
 40
0
 40
0
 40
0
 40
0
 40
1
 40
1
 40
1
 40
1
 10
68.568494
 20
80.715063
 30
0.0
 10
68.727168
 20
80.655993
 30
0.0
 10
69.213168
 20
80.354192
 30
0.0
 10
69.648494
 20
80.044386
 30
0.0
  0
SPLINE
  5
34a
100
AcDbEntity
  8
0
 62
7
100
AcDbSpline
 70
8
 71
3
 72
8
 73
4
 74
0
 40
0
 40
0
 40
0
 40
0
 40
1
 40
1
 40
1
 40
1
 10
69.648494
 20
80.044386
 30
0.0
 10
70.083823
 20
79.734582
 30
0.0
 10
70.467000
 20
79.471856
 30
0.0
 10
70.500000
 20
79.460552
 30
0.0
  0
SPLINE
  5
34b
100
AcDbEntity
  8
0
 62
7
100
AcDbSpline
 70
8
 71
3
 72
8
 73
4
 74
0
 40
0
 40
0
 40
0
 40
0
 40
1
 40
1
 40
1
 40
1
 10
70.500000
 20
79.460552
 30
0.0
 10
70.533000
 20
79.449250
 30
0.0
 10
71.002666
 20
79.882664
 30
0.0
 10
71.543700
 20
80.423699
 30
0.0
  0
LWPOLYLINE
  5
34c
100
AcDbEntity
  8
0
 62
7
100
AcDbPolyline
 90
3
 70
0
 10
84.208268
 20
80.312747
 30
0.0
 10
85.012170
 20
79.483334
 30
0.0
 10
86.066085
 20
80.119922
 30
0.0
  0
SPLINE
  5
34d
100
AcDbEntity
  8
0
 62
7
100
AcDbSpline
 70
8
 71
3
 72
8
 73
4
 74
0
 40
0
 40
0
 40
0
 40
0
 40
1
 40
1
 40
1
 40
1
 10
107.526915
 20
80.434124
 30
0.0
 10
108.101685
 20
80.980892
 30
0.0
 10
109.280265
 20
81.762714
 30
0.0
 10
110.145983
 20
82.171503
 30
0.0
  0
SPLINE
  5
34e
100
AcDbEntity
  8
0
 62
7
100
AcDbSpline
 70
8
 71
3
 72
8
 73
4
 74
0
 40
0
 40
0
 40
0
 40
0
 40
1
 40
1
 40
1
 40
1
 10
110.145983
 20
82.171503
 30
0.0
 10
111.538170
 20
82.828895
 30
0.0
 10
111.955658
 20
82.912542
 30
0.0
 10
113.760000
 20
82.895600
 30
0.0
  0
SPLINE
  5
34f
100
AcDbEntity
  8
0
 62
7
100
AcDbSpline
 70
8
 71
3
 72
8
 73
4
 74
0
 40
0
 40
0
 40
0
 40
0
 40
1
 40
1
 40
1
 40
1
 10
113.760000
 20
82.895600
 30
0.0
 10
115.040138
 20
82.883578
 30
0.0
 10
116.193878
 20
82.727161
 30
0.0
 10
116.857440
 20
82.475660
 30
0.0
  0
SPLINE
  5
350
100
AcDbEntity
  8
0
 62
7
100
AcDbSpline
 70
8
 71
3
 72
8
 73
4
 74
0
 40
0
 40
0
 40
0
 40
0
 40
1
 40
1
 40
1
 40
1
 10
116.857440
 20
82.475660
 30
0.0
 10
117.439028
 20
82.255227
 30
0.0
 10
117.960338
 20
82.120333
 30
0.0
 10
118.015898
 20
82.175898
 30
0.0
  0
SPLINE
  5
351
100
AcDbEntity
  8
0
 62
7
100
AcDbSpline
 70
8
 71
3
 72
8
 73
4
 74
0
 40
0
 40
0
 40
0
 40
0
 40
1
 40
1
 40
1
 40
1
 10
118.015898
 20
82.175898
 30
0.0
 10
118.071472
 20
82.231458
 30
0.0
 10
117.935175
 20
82.924674
 30
0.0
 10
117.713033
 20
83.716371
 30
0.0
  0
SPLINE
  5
352
100
AcDbEntity
  8
0
 62
7
100
AcDbSpline
 70
8
 71
3
 72
8
 73
4
 74
0
 40
0
 40
0
 40
0
 40
0
 40
1
 40
1
 40
1
 40
1
 10
117.713033
 20
83.716371
 30
0.0
 10
117.320535
 20
85.115221
 30
0.0
 10
117.279787
 20
85.163214
 30
0.0
 10
116.268293
 20
85.417909
 30
0.0
  0
SPLINE
  5
353
100
AcDbEntity
  8
0
 62
7
100
AcDbSpline
 70
8
 71
3
 72
8
 73
4
 74
0
 40
0
 40
0
 40
0
 40
0
 40
1
 40
1
 40
1
 40
1
 10
116.268293
 20
85.417909
 30
0.0
 10
113.932560
 20
86.006053
 30
0.0
 10
110.838533
 20
85.576064
 30
0.0
 10
108.466650
 20
84.333685
 30
0.0
  0
SPLINE
  5
354
100
AcDbEntity
  8
0
 62
7
100
AcDbSpline
 70
8
 71
3
 72
8
 73
4
 74
0
 40
0
 40
0
 40
0
 40
0
 40
1
 40
1
 40
1
 40
1
 10
108.466650
 20
84.333685
 30
0.0
 10
106.890833
 20
83.508274
 30
0.0
 10
104.054633
 20
80.907577
 30
0.0
 10
104.533185
 20
80.726833
 30
0.0
  0
SPLINE
  5
355
100
AcDbEntity
  8
0
 62
7
100
AcDbSpline
 70
8
 71
3
 72
8
 73
4
 74
0
 40
0
 40
0
 40
0
 40
0
 40
1
 40
1
 40
1
 40
1
 10
104.533185
 20
80.726833
 30
0.0
 10
104.672445
 20
80.674235
 30
0.0
 10
105.158445
 20
80.368479
 30
0.0
 10
105.613185
 20
80.047371
 30
0.0
  0
SPLINE
  5
356
100
AcDbEntity
  8
0
 62
7
100
AcDbSpline
 70
8
 71
3
 72
8
 73
4
 74
0
 40
0
 40
0
 40
0
 40
0
 40
1
 40
1
 40
1
 40
1
 10
105.613185
 20
80.047371
 30
0.0
 10
106.067933
 20
79.726261
 30
0.0
 10
106.449420
 20
79.458241
 30
0.0
 10
106.460933
 20
79.451768
 30
0.0
  0
SPLINE
  5
357
100
AcDbEntity
  8
0
 62
7
100
AcDbSpline
 70
8
 71
3
 72
8
 73
4
 74
0
 40
0
 40
0
 40
0
 40
0
 40
1
 40
1
 40
1
 40
1
 10
106.460933
 20
79.451768
 30
0.0
 10
106.472483
 20
79.445318
 30
0.0
 10
106.952138
 20
79.887356
 30
0.0
 10
107.526915
 20
80.434124
 30
0.0
  0
LWPOLYLINE
  5
358
100
AcDbEntity
  8
0
 62
7
100
AcDbPolyline
 90
1
 70
1
 10
71.543700
 20
80.423699
 30
0.0
  0
SPLINE
  5
359
100
AcDbEntity
  8
0
 62
7
100
AcDbSpline
 70
8
 71
3
 72
8
 73
4
 74
0
 40
0
 40
0
 40
0
 40
0
 40
1
 40
1
 40
1
 40
1
 10
14.280395
 20
80.220000
 30
0.0
 10
14.738910
 20
80.517000
 30
0.0
 10
15.115395
 20
80.826434
 30
0.0
 10
15.117029
 20
80.907634
 30
0.0
  0
SPLINE
  5
35a
100
AcDbEntity
  8
0
 62
7
100
AcDbSpline
 70
8
 71
3
 72
8
 73
4
 74
0
 40
0
 40
0
 40
0
 40
0
 40
1
 40
1
 40
1
 40
1
 10
15.117029
 20
80.907634
 30
0.0
 10
15.121979
 20
81.154430
 30
0.0
 10
14.112966
 20
82.352966
 30
0.0
 10
13.997465
 20
82.237464
 30
0.0
  0
SPLINE
  5
35b
100
AcDbEntity
  8
0
 62
7
100
AcDbSpline
 70
8
 71
3
 72
8
 73
4
 74
0
 40
0
 40
0
 40
0
 40
0
 40
1
 40
1
 40
1
 40
1
 10
13.997465
 20
82.237464
 30
0.0
 10
13.837996
 20
82.077996
 30
0.0
 10
13.226298
 20
79.680000
 30
0.0
 10
13.345089
 20
79.680000
 30
0.0
  0
SPLINE
  5
35c
100
AcDbEntity
  8
0
 62
7
100
AcDbSpline
 70
8
 71
3
 72
8
 73
4
 74
0
 40
0
 40
0
 40
0
 40
0
 40
1
 40
1
 40
1
 40
1
 10
13.345089
 20
79.680000
 30
0.0
 10
13.400994
 20
79.680000
 30
0.0
 10
13.821880
 20
79.923000
 30
0.0
 10
14.280395
 20
80.220000
 30
0.0
  0
LWPOLYLINE
  5
35d
100
AcDbEntity
  8
0
 62
7
100
AcDbPolyline
 90
1
 70
1
 10
107.526915
 20
80.434124
 30
0.0
  0
SPLINE
  5
35e
100
AcDbEntity
  8
0
 62
7
100
AcDbSpline
 70
8
 71
3
 72
8
 73
4
 74
0
 40
0
 40
0
 40
0
 40
0
 40
1
 40
1
 40
1
 40
1
 10
55.407376
 20
82.485521
 30
0.0
 10
55.647019
 20
82.620544
 30
0.0
 10
54.330005
 20
84.306276
 30
0.0
 10
52.989684
 20
85.580086
 30
0.0
  0
SPLINE
  5
35f
100
AcDbEntity
  8
0
 62
7
100
AcDbSpline
 70
8
 71
3
 72
8
 73
4
 74
0
 40
0
 40
0
 40
0
 40
0
 40
1
 40
1
 40
1
 40
1
 10
52.989684
 20
85.580086
 30
0.0
 10
50.291016
 20
88.144836
 30
0.0
 10
47.640790
 20
89.455370
 30
0.0
 10
44.055410
 20
89.998078
 30
0.0
  0
SPLINE
  5
360
100
AcDbEntity
  8
0
 62
7
100
AcDbSpline
 70
8
 71
3
 72
8
 73
4
 74
0
 40
0
 40
0
 40
0
 40
0
 40
1
 40
1
 40
1
 40
1
 10
44.055410
 20
89.998078
 30
0.0
 10
40.801576
 20
90.490598
 30
0.0
 10
38.002435
 20
90.023998
 30
0.0
 10
34.680000
 20
88.435255
 30
0.0
  0
SPLINE
  5
361
100
AcDbEntity
  8
0
 62
7
100
AcDbSpline
 70
8
 71
3
 72
8
 73
4
 74
0
 40
0
 40
0
 40
0
 40
0
 40
1
 40
1
 40
1
 40
1
 10
34.680000
 20
88.435255
 30
0.0
 10
32.349581
 20
87.320880
 30
0.0
 10
30.200212
 20
85.566012
 30
0.0
 10
28.844936
 20
83.671171
 30
0.0
  0
LWPOLYLINE
  5
362
100
AcDbEntity
  8
0
 62
7
100
AcDbPolyline
 90
1
 70
1
 10
14.280395
 20
80.220000
 30
0.0
  0
SPLINE
  5
363
100
AcDbEntity
  8
0
 62
7
100
AcDbSpline
 70
8
 71
3
 72
8
 73
4
 74
0
 40
0
 40
0
 40
0
 40
0
 40
1
 40
1
 40
1
 40
1
 10
28.724936
 20
82.302324
 30
0.0
 10
30.443098
 20
81.647576
 30
0.0
 10
30.608852
 20
81.692652
 30
0.0
 10
31.998488
 20
83.192548
 30
0.0
  0
SPLINE
  5
364
100
AcDbEntity
  8
0
 62
7
100
AcDbSpline
 70
8
 71
3
 72
8
 73
4
 74
0
 40
0
 40
0
 40
0
 40
0
 40
1
 40
1
 40
1
 40
1
 10
31.998488
 20
83.192548
 30
0.0
 10
35.530496
 20
87.004807
 30
0.0
 10
41.075536
 20
88.426639
 30
0.0
 10
46.006608
 20
86.784442
 30
0.0
  0
SPLINE
  5
365
100
AcDbEntity
  8
0
 62
7
100
AcDbSpline
 70
8
 71
3
 72
8
 73
4
 74
0
 40
0
 40
0
 40
0
 40
0
 40
1
 40
1
 40
1
 40
1
 10
46.006608
 20
86.784442
 30
0.0
 10
48.366439
 20
85.998548
 30
0.0
 10
49.566184
 20
85.225730
 30
0.0
 10
51.557390
 20
83.208905
 30
0.0
  0
LWPOLYLINE
  5
366
100
AcDbEntity
  8
0
 62
7
100
AcDbPolyline
 90
3
 70
0
 10
28.844936
 20
83.671171
 30
0.0
 10
28.049870
 20
82.559575
 30
0.0
 10
28.724936
 20
82.302324
 30
0.0
  0
SPLINE
  5
367
100
AcDbEntity
  8
0
 62
7
100
AcDbSpline
 70
8
 71
3
 72
8
 73
4
 74
0
 40
0
 40
0
 40
0
 40
0
 40
1
 40
1
 40
1
 40
1
 10
54.197390
 20
82.054142
 30
0.0
 10
54.814826
 20
82.264322
 30
0.0
 10
55.359320
 20
82.458444
 30
0.0
 10
55.407377
 20
82.485521
 30
0.0
  0
LWPOLYLINE
  5
368
100
AcDbEntity
  8
0
 62
7
100
AcDbPolyline
 90
3
 70
0
 10
51.557390
 20
83.208905
 30
0.0
 10
53.074781
 20
81.671993
 30
0.0
 10
54.197390
 20
82.054142
 30
0.0
  0
SPLINE
  5
369
100
AcDbEntity
  8
0
 62
7
100
AcDbSpline
 70
8
 71
3
 72
8
 73
4
 74
0
 40
0
 40
0
 40
0
 40
0
 40
1
 40
1
 40
1
 40
1
 10
91.399447
 20
82.468458
 30
0.0
 10
91.601798
 20
82.596925
 30
0.0
 10
90.758602
 20
83.766782
 30
0.0
 10
89.539575
 20
85.048852
 30
0.0
  0
SPLINE
  5
36a
100
AcDbEntity
  8
0
 62
7
100
AcDbSpline
 70
8
 71
3
 72
8
 73
4
 74
0
 40
0
 40
0
 40
0
 40
0
 40
1
 40
1
 40
1
 40
1
 10
89.539575
 20
85.048852
 30
0.0
 10
85.319962
 20
89.486677
 30
0.0
 10
79.177882
 20
91.195206
 30
0.0
 10
73.391990
 20
89.540591
 30
0.0
  0
SPLINE
  5
36b
100
AcDbEntity
  8
0
 62
7
100
AcDbSpline
 70
8
 71
3
 72
8
 73
4
 74
0
 40
0
 40
0
 40
0
 40
0
 40
1
 40
1
 40
1
 40
1
 10
73.391990
 20
89.540591
 30
0.0
 10
70.069418
 20
88.590421
 30
0.0
 10
66.716594
 20
86.287977
 30
0.0
 10
64.844935
 20
83.671175
 30
0.0
  0
LWPOLYLINE
  5
36c
100
AcDbEntity
  8
0
 62
7
100
AcDbPolyline
 90
1
 70
1
 10
55.407377
 20
82.485521
 30
0.0
  0
SPLINE
  5
36d
100
AcDbEntity
  8
0
 62
7
100
AcDbSpline
 70
8
 71
3
 72
8
 73
4
 74
0
 40
0
 40
0
 40
0
 40
0
 40
1
 40
1
 40
1
 40
1
 10
64.724935
 20
82.302328
 30
0.0
 10
66.400255
 20
81.663906
 30
0.0
 10
66.560306
 20
81.708217
 30
0.0
 10
67.988935
 20
83.205983
 30
0.0
  0
SPLINE
  5
36e
100
AcDbEntity
  8
0
 62
7
100
AcDbSpline
 70
8
 71
3
 72
8
 73
4
 74
0
 40
0
 40
0
 40
0
 40
0
 40
1
 40
1
 40
1
 40
1
 10
67.988935
 20
83.205983
 30
0.0
 10
69.570346
 20
84.863927
 30
0.0
 10
71.742910
 20
86.218449
 30
0.0
 10
73.920000
 20
86.903807
 30
0.0
  0
SPLINE
  5
36f
100
AcDbEntity
  8
0
 62
7
100
AcDbSpline
 70
8
 71
3
 72
8
 73
4
 74
0
 40
0
 40
0
 40
0
 40
0
 40
1
 40
1
 40
1
 40
1
 10
73.920000
 20
86.903807
 30
0.0
 10
75.704752
 20
87.465654
 30
0.0
 10
79.065577
 20
87.575658
 30
0.0
 10
80.972325
 20
87.134637
 30
0.0
  0
SPLINE
  5
370
100
AcDbEntity
  8
0
 62
7
100
AcDbSpline
 70
8
 71
3
 72
8
 73
4
 74
0
 40
0
 40
0
 40
0
 40
0
 40
1
 40
1
 40
1
 40
1
 10
80.972325
 20
87.134637
 30
0.0
 10
83.485260
 20
86.553407
 30
0.0
 10
86.790750
 20
84.485202
 30
0.0
 10
88.187947
 20
82.619922
 30
0.0
  0
LWPOLYLINE
  5
371
100
AcDbEntity
  8
0
 62
7
100
AcDbPolyline
 90
3
 70
0
 10
64.844935
 20
83.671175
 30
0.0
 10
64.049870
 20
82.559579
 30
0.0
 10
64.724935
 20
82.302328
 30
0.0
  0
SPLINE
  5
372
100
AcDbEntity
  8
0
 62
7
100
AcDbSpline
 70
8
 71
3
 72
8
 73
4
 74
0
 40
0
 40
0
 40
0
 40
0
 40
1
 40
1
 40
1
 40
1
 10
90.107947
 20
82.046411
 30
0.0
 10
90.774577
 20
82.250797
 30
0.0
 10
91.355752
 20
82.440719
 30
0.0
 10
91.399447
 20
82.468458
 30
0.0
  0
LWPOLYLINE
  5
373
100
AcDbEntity
  8
0
 62
7
100
AcDbPolyline
 90
3
 70
0
 10
88.187947
 20
82.619922
 30
0.0
 10
88.895895
 20
81.674800
 30
0.0
 10
90.107947
 20
82.046411
 30
0.0
  0
SPLINE
  5
374
100
AcDbEntity
  8
0
 62
7
100
AcDbSpline
 70
8
 71
3
 72
8
 73
4
 74
0
 40
0
 40
0
 40
0
 40
0
 40
1
 40
1
 40
1
 40
1
 10
18.332155
 20
82.123283
 30
0.0
 10
19.592071
 20
82.484586
 30
0.0
 10
19.533781
 20
82.404652
 30
0.0
 10
19.115668
 20
83.197701
 30
0.0
  0
SPLINE
  5
375
100
AcDbEntity
  8
0
 62
7
100
AcDbSpline
 70
8
 71
3
 72
8
 73
4
 74
0
 40
0
 40
0
 40
0
 40
0
 40
1
 40
1
 40
1
 40
1
 10
19.115668
 20
83.197701
 30
0.0
 10
18.624676
 20
84.128980
 30
0.0
 10
15.658105
 20
87.017380
 30
0.0
 10
15.426562
 20
86.789593
 30
0.0
  0
SPLINE
  5
376
100
AcDbEntity
  8
0
 62
7
100
AcDbSpline
 70
8
 71
3
 72
8
 73
4
 74
0
 40
0
 40
0
 40
0
 40
0
 40
1
 40
1
 40
1
 40
1
 10
15.426562
 20
86.789593
 30
0.0
 10
15.323953
 20
86.688652
 30
0.0
 10
15.073045
 20
86.113754
 30
0.0
 10
14.868988
 20
85.512045
 30
0.0
  0
LWPOLYLINE
  5
377
100
AcDbEntity
  8
0
 62
7
100
AcDbPolyline
 90
1
 70
1
 10
91.399447
 20
82.468458
 30
0.0
  0
SPLINE
  5
378
100
AcDbEntity
  8
0
 62
7
100
AcDbSpline
 70
8
 71
3
 72
8
 73
4
 74
0
 40
0
 40
0
 40
0
 40
0
 40
1
 40
1
 40
1
 40
1
 10
15.708988
 20
83.130729
 30
0.0
 10
16.375045
 20
82.422714
 30
0.0
 10
17.015470
 20
81.842661
 30
0.0
 10
17.132155
 20
81.841717
 30
0.0
  0
SPLINE
  5
379
100
AcDbEntity
  8
0
 62
7
100
AcDbSpline
 70
8
 71
3
 72
8
 73
4
 74
0
 40
0
 40
0
 40
0
 40
0
 40
1
 40
1
 40
1
 40
1
 10
17.132155
 20
81.841717
 30
0.0
 10
17.248840
 20
81.840742
 30
0.0
 10
17.788840
 20
81.967480
 30
0.0
 10
18.332155
 20
82.123283
 30
0.0
  0
LWPOLYLINE
  5
37a
100
AcDbEntity
  8
0
 62
7
100
AcDbPolyline
 90
3
 70
0
 10
14.868988
 20
85.512045
 30
0.0
 10
14.497977
 20
84.418026
 30
0.0
 10
15.708988
 20
83.130729
 30
0.0
  0
SPLINE
  5
37b
100
AcDbEntity
  8
0
 62
7
100
AcDbSpline
 70
8
 71
3
 72
8
 73
4
 74
0
 40
0
 40
0
 40
0
 40
0
 40
1
 40
1
 40
1
 40
1
 10
104.308425
 20
83.495897
 30
0.0
 10
107.324520
 20
86.446951
 30
0.0
 10
111.478635
 20
87.932890
 30
0.0
 10
115.225148
 20
87.400834
 30
0.0
  0
LWPOLYLINE
  5
37c
100
AcDbEntity
  8
0
 62
7
100
AcDbPolyline
 90
1
 70
1
 10
18.332155
 20
82.123283
 30
0.0
  0
SPLINE
  5
37d
100
AcDbEntity
  8
0
 62
7
100
AcDbSpline
 70
8
 71
3
 72
8
 73
4
 74
0
 40
0
 40
0
 40
0
 40
0
 40
1
 40
1
 40
1
 40
1
 10
116.038612
 20
88.516632
 30
0.0
 10
115.746195
 20
89.235386
 30
0.0
 10
115.316618
 20
89.929970
 30
0.0
 10
115.083998
 20
90.060151
 30
0.0
  0
SPLINE
  5
37e
100
AcDbEntity
  8
0
 62
7
100
AcDbSpline
 70
8
 71
3
 72
8
 73
4
 74
0
 40
0
 40
0
 40
0
 40
0
 40
1
 40
1
 40
1
 40
1
 10
115.083998
 20
90.060151
 30
0.0
 10
114.483488
 20
90.396216
 30
0.0
 10
111.123540
 20
90.059431
 30
0.0
 10
109.220813
 20
89.472540
 30
0.0
  0
SPLINE
  5
37f
100
AcDbEntity
  8
0
 62
7
100
AcDbSpline
 70
8
 71
3
 72
8
 73
4
 74
0
 40
0
 40
0
 40
0
 40
0
 40
1
 40
1
 40
1
 40
1
 10
109.220813
 20
89.472540
 30
0.0
 10
107.000438
 20
88.787616
 30
0.0
 10
105.153668
 20
87.807010
 30
0.0
 10
103.513515
 20
86.442062
 30
0.0
  0
SPLINE
  5
380
100
AcDbEntity
  8
0
 62
7
100
AcDbSpline
 70
8
 71
3
 72
8
 73
4
 74
0
 40
0
 40
0
 40
0
 40
0
 40
1
 40
1
 40
1
 40
1
 10
103.513515
 20
86.442062
 30
0.0
 10
102.077265
 20
85.246802
 30
0.0
 10
100.202138
 20
83.012134
 30
0.0
 10
100.326353
 20
82.643782
 30
0.0
  0
SPLINE
  5
381
100
AcDbEntity
  8
0
 62
7
100
AcDbSpline
 70
8
 71
3
 72
8
 73
4
 74
0
 40
0
 40
0
 40
0
 40
0
 40
1
 40
1
 40
1
 40
1
 10
100.326353
 20
82.643782
 30
0.0
 10
100.401277
 20
82.421506
 30
0.0
 10
101.658150
 20
81.914532
 30
0.0
 10
102.248018
 20
81.868636
 30
0.0
  0
SPLINE
  5
382
100
AcDbEntity
  8
0
 62
7
100
AcDbSpline
 70
8
 71
3
 72
8
 73
4
 74
0
 40
0
 40
0
 40
0
 40
0
 40
1
 40
1
 40
1
 40
1
 10
102.248018
 20
81.868636
 30
0.0
 10
102.450428
 20
81.852894
 30
0.0
 10
103.377615
 20
82.585154
 30
0.0
 10
104.308425
 20
83.495896
 30
0.0
  0
LWPOLYLINE
  5
383
100
AcDbEntity
  8
0
 62
7
100
AcDbPolyline
 90
3
 70
0
 10
115.225148
 20
87.400834
 30
0.0
 10
116.570295
 20
87.209803
 30
0.0
 10
116.038612
 20
88.516632
 30
0.0
  0
SPLINE
  5
384
100
AcDbEntity
  8
0
 62
7
100
AcDbSpline
 70
8
 71
3
 72
8
 73
4
 74
0
 40
0
 40
0
 40
0
 40
0
 40
1
 40
1
 40
1
 40
1
 10
26.942000
 20
84.142608
 30
0.0
 10
27.369364
 20
84.790174
 30
0.0
 10
28.403204
 20
86.005958
 30
0.0
 10
29.239418
 20
86.844350
 30
0.0
  0
SPLINE
  5
385
100
AcDbEntity
  8
0
 62
7
100
AcDbSpline
 70
8
 71
3
 72
8
 73
4
 74
0
 40
0
 40
0
 40
0
 40
0
 40
1
 40
1
 40
1
 40
1
 10
29.239418
 20
86.844350
 30
0.0
 10
30.966809
 20
88.576236
 30
0.0
 10
30.993094
 20
88.783248
 30
0.0
 10
29.735674
 20
90.752443
 30
0.0
  0
SPLINE
  5
386
100
AcDbEntity
  8
0
 62
7
100
AcDbSpline
 70
8
 71
3
 72
8
 73
4
 74
0
 40
0
 40
0
 40
0
 40
0
 40
1
 40
1
 40
1
 40
1
 10
29.735674
 20
90.752443
 30
0.0
 10
27.970642
 20
93.516588
 30
0.0
 10
24.370024
 20
94.602691
 30
0.0
 10
21.070152
 20
93.366343
 30
0.0
  0
SPLINE
  5
387
100
AcDbEntity
  8
0
 62
7
100
AcDbSpline
 70
8
 71
3
 72
8
 73
4
 74
0
 40
0
 40
0
 40
0
 40
0
 40
1
 40
1
 40
1
 40
1
 10
21.070152
 20
93.366343
 30
0.0
 10
19.458572
 20
92.762540
 30
0.0
 10
17.785675
 20
91.071708
 30
0.0
 10
17.148100
 20
89.402244
 30
0.0
  0
LWPOLYLINE
  5
388
100
AcDbEntity
  8
0
 62
7
100
AcDbPolyline
 90
1
 70
1
 10
104.308425
 20
83.495896
 30
0.0
  0
SPLINE
  5
389
100
AcDbEntity
  8
0
 62
7
100
AcDbSpline
 70
8
 71
3
 72
8
 73
4
 74
0
 40
0
 40
0
 40
0
 40
0
 40
1
 40
1
 40
1
 40
1
 10
18.105369
 20
87.091612
 30
0.0
 10
18.855414
 20
86.406115
 30
0.0
 10
19.938719
 20
85.187072
 30
0.0
 10
20.512714
 20
84.382627
 30
0.0
  0
LWPOLYLINE
  5
38a
100
AcDbEntity
  8
0
 62
7
100
AcDbPolyline
 90
3
 70
0
 10
17.148100
 20
89.402244
 30
0.0
 10
16.741652
 20
88.337974
 30
0.0
 10
18.105369
 20
87.091612
 30
0.0
  0
SPLINE
  5
38b
100
AcDbEntity
  8
0
 62
7
100
AcDbSpline
 70
8
 71
3
 72
8
 73
4
 74
0
 40
0
 40
0
 40
0
 40
0
 40
1
 40
1
 40
1
 40
1
 10
63.365189
 20
84.680848
 30
0.0
 10
64.016640
 20
85.608482
 30
0.0
 10
65.037976
 20
86.775648
 30
0.0
 10
65.634823
 20
87.274550
 30
0.0
  0
SPLINE
  5
38c
100
AcDbEntity
  8
0
 62
7
100
AcDbSpline
 70
8
 71
3
 72
8
 73
4
 74
0
 40
0
 40
0
 40
0
 40
0
 40
1
 40
1
 40
1
 40
1
 10
65.634823
 20
87.274550
 30
0.0
 10
66.231670
 20
87.773452
 30
0.0
 10
66.717629
 20
88.347776
 30
0.0
 10
66.714730
 20
88.550822
 30
0.0
  0
SPLINE
  5
38d
100
AcDbEntity
  8
0
 62
7
100
AcDbSpline
 70
8
 71
3
 72
8
 73
4
 74
0
 40
0
 40
0
 40
0
 40
0
 40
1
 40
1
 40
1
 40
1
 10
66.714730
 20
88.550822
 30
0.0
 10
66.704432
 20
89.272212
 30
0.0
 10
65.809658
 20
90.853603
 30
0.0
 10
64.891622
 20
91.772928
 30
0.0
  0
SPLINE
  5
38e
100
AcDbEntity
  8
0
 62
7
100
AcDbSpline
 70
8
 71
3
 72
8
 73
4
 74
0
 40
0
 40
0
 40
0
 40
0
 40
1
 40
1
 40
1
 40
1
 10
64.891622
 20
91.772928
 30
0.0
 10
62.930124
 20
93.737177
 30
0.0
 10
60.065240
 20
94.378536
 30
0.0
 10
57.322284
 20
93.467472
 30
0.0
  0
SPLINE
  5
38f
100
AcDbEntity
  8
0
 62
7
100
AcDbSpline
 70
8
 71
3
 72
8
 73
4
 74
0
 40
0
 40
0
 40
0
 40
0
 40
1
 40
1
 40
1
 40
1
 10
57.322284
 20
93.467472
 30
0.0
 10
55.725116
 20
92.936978
 30
0.0
 10
53.748686
 20
91.039042
 30
0.0
 10
53.166176
 20
89.476420
 30
0.0
  0
LWPOLYLINE
  5
390
100
AcDbEntity
  8
0
 62
7
100
AcDbPolyline
 90
6
 70
0
 10
20.512714
 20
84.382627
 30
0.0
 10
21.556342
 20
82.920000
 30
0.0
 10
23.860658
 20
82.942605
 30
0.0
 10
26.164976
 20
82.965210
 30
0.0
 10
26.942000
 20
84.142600
 30
0.0
 10
26.942000
 20
84.142608
 30
0.0
  0
SPLINE
  5
391
100
AcDbEntity
  8
0
 62
7
100
AcDbSpline
 70
8
 71
3
 72
8
 73
4
 74
0
 40
0
 40
0
 40
0
 40
0
 40
1
 40
1
 40
1
 40
1
 10
54.273665
 20
86.921002
 30
0.0
 10
55.113149
 20
86.133488
 30
0.0
 10
56.175024
 20
84.911100
 30
0.0
 10
56.633386
 20
84.204580
 30
0.0
  0
LWPOLYLINE
  5
392
100
AcDbEntity
  8
0
 62
7
100
AcDbPolyline
 90
3
 70
0
 10
53.166176
 20
89.476420
 30
0.0
 10
52.747330
 20
88.352842
 30
0.0
 10
54.273665
 20
86.921002
 30
0.0
  0
SPLINE
  5
393
100
AcDbEntity
  8
0
 62
7
100
AcDbSpline
 70
8
 71
3
 72
8
 73
4
 74
0
 40
0
 40
0
 40
0
 40
0
 40
1
 40
1
 40
1
 40
1
 10
98.944785
 20
84.146816
 30
0.0
 10
99.370620
 20
84.792068
 30
0.0
 10
100.403205
 20
86.005958
 30
0.0
 10
101.239417
 20
86.844350
 30
0.0
  0
SPLINE
  5
394
100
AcDbEntity
  8
0
 62
7
100
AcDbSpline
 70
8
 71
3
 72
8
 73
4
 74
0
 40
0
 40
0
 40
0
 40
0
 40
1
 40
1
 40
1
 40
1
 10
101.239417
 20
86.844350
 30
0.0
 10
102.944287
 20
88.553657
 30
0.0
 10
102.987225
 20
88.820364
 30
0.0
 10
101.839800
 20
90.573523
 30
0.0
  0
SPLINE
  5
395
100
AcDbEntity
  8
0
 62
7
100
AcDbSpline
 70
8
 71
3
 72
8
 73
4
 74
0
 40
0
 40
0
 40
0
 40
0
 40
1
 40
1
 40
1
 40
1
 10
101.839800
 20
90.573523
 30
0.0
 10
100.992997
 20
91.867363
 30
0.0
 10
100.174342
 20
92.568689
 30
0.0
 10
98.675498
 20
93.284326
 30
0.0
  0
SPLINE
  5
396
100
AcDbEntity
  8
0
 62
7
100
AcDbSpline
 70
8
 71
3
 72
8
 73
4
 74
0
 40
0
 40
0
 40
0
 40
0
 40
1
 40
1
 40
1
 40
1
 10
98.675498
 20
93.284326
 30
0.0
 10
97.538640
 20
93.827129
 30
0.0
 10
97.163700
 20
93.885692
 30
0.0
 10
95.413395
 20
93.793824
 30
0.0
  0
SPLINE
  5
397
100
AcDbEntity
  8
0
 62
7
100
AcDbSpline
 70
8
 71
3
 72
8
 73
4
 74
0
 40
0
 40
0
 40
0
 40
0
 40
1
 40
1
 40
1
 40
1
 10
95.413395
 20
93.793824
 30
0.0
 10
93.820793
 20
93.710232
 30
0.0
 10
93.222082
 20
93.564782
 30
0.0
 10
92.338043
 20
93.046704
 30
0.0
  0
SPLINE
  5
398
100
AcDbEntity
  8
0
 62
7
100
AcDbSpline
 70
8
 71
3
 72
8
 73
4
 74
0
 40
0
 40
0
 40
0
 40
0
 40
1
 40
1
 40
1
 40
1
 10
92.338043
 20
93.046704
 30
0.0
 10
90.975960
 20
92.248471
 30
0.0
 10
89.656980
 20
90.734731
 30
0.0
 10
89.136877
 20
89.372858
 30
0.0
  0
LWPOLYLINE
  5
399
100
AcDbEntity
  8
0
 62
7
100
AcDbPolyline
 90
5
 70
0
 10
56.633386
 20
84.204580
 30
0.0
 10
57.466772
 20
82.920000
 30
0.0
 10
59.823752
 20
82.957117
 30
0.0
 10
62.180732
 20
82.994242
 30
0.0
 10
63.365189
 20
84.680848
 30
0.0
  0
SPLINE
  5
39a
100
AcDbEntity
  8
0
 62
7
100
AcDbSpline
 70
8
 71
3
 72
8
 73
4
 74
0
 40
0
 40
0
 40
0
 40
0
 40
1
 40
1
 40
1
 40
1
 10
90.105367
 20
87.091612
 30
0.0
 10
90.855412
 20
86.406115
 30
0.0
 10
91.938938
 20
85.187072
 30
0.0
 10
92.513198
 20
84.382627
 30
0.0
  0
LWPOLYLINE
  5
39b
100
AcDbEntity
  8
0
 62
7
100
AcDbPolyline
 90
3
 70
0
 10
89.136877
 20
89.372858
 30
0.0
 10
88.741650
 20
88.337974
 30
0.0
 10
90.105367
 20
87.091612
 30
0.0
  0
SPLINE
  5
39c
100
AcDbEntity
  8
0
 62
7
100
AcDbSpline
 70
8
 71
3
 72
8
 73
4
 74
0
 40
0
 40
0
 40
0
 40
0
 40
1
 40
1
 40
1
 40
1
 10
33.714442
 20
90.048242
 30
0.0
 10
34.940381
 20
90.643850
 30
0.0
 10
34.951484
 20
90.791232
 30
0.0
 10
33.907436
 20
92.609906
 30
0.0
  0
SPLINE
  5
39d
100
AcDbEntity
  8
0
 62
7
100
AcDbSpline
 70
8
 71
3
 72
8
 73
4
 74
0
 40
0
 40
0
 40
0
 40
0
 40
1
 40
1
 40
1
 40
1
 10
33.907436
 20
92.609906
 30
0.0
 10
31.875936
 20
96.148661
 30
0.0
 10
27.934428
 20
98.404116
 30
0.0
 10
23.794720
 20
98.396724
 30
0.0
  0
SPLINE
  5
39e
100
AcDbEntity
  8
0
 62
7
100
AcDbSpline
 70
8
 71
3
 72
8
 73
4
 74
0
 40
0
 40
0
 40
0
 40
0
 40
1
 40
1
 40
1
 40
1
 10
23.794720
 20
98.396724
 30
0.0
 10
22.785624
 20
98.394774
 30
0.0
 10
21.733238
 20
98.332569
 30
0.0
 10
21.456083
 20
98.258167
 30
0.0
  0
SPLINE
  5
39f
100
AcDbEntity
  8
0
 62
7
100
AcDbSpline
 70
8
 71
3
 72
8
 73
4
 74
0
 40
0
 40
0
 40
0
 40
0
 40
1
 40
1
 40
1
 40
1
 10
21.456083
 20
98.258167
 30
0.0
 10
21.007745
 20
98.137810
 30
0.0
 10
18.617393
 20
94.582608
 30
0.0
 10
18.837093
 20
94.362908
 30
0.0
  0
SPLINE
  5
3a0
100
AcDbEntity
  8
0
 62
7
100
AcDbSpline
 70
8
 71
3
 72
8
 73
4
 74
0
 40
0
 40
0
 40
0
 40
0
 40
1
 40
1
 40
1
 40
1
 10
18.837093
 20
94.362908
 30
0.0
 10
18.881786
 20
94.318215
 30
0.0
 10
19.170724
 20
94.443824
 30
0.0
 10
19.479177
 20
94.642042
 30
0.0
  0
SPLINE
  5
3a1
100
AcDbEntity
  8
0
 62
7
100
AcDbSpline
 70
8
 71
3
 72
8
 73
4
 74
0
 40
0
 40
0
 40
0
 40
0
 40
1
 40
1
 40
1
 40
1
 10
19.479177
 20
94.642042
 30
0.0
 10
20.582340
 20
95.350954
 30
0.0
 10
22.810773
 20
95.823724
 30
0.0
 10
24.484596
 20
95.703965
 30
0.0
  0
SPLINE
  5
3a2
100
AcDbEntity
  8
0
 62
7
100
AcDbSpline
 70
8
 71
3
 72
8
 73
4
 74
0
 40
0
 40
0
 40
0
 40
0
 40
1
 40
1
 40
1
 40
1
 10
24.484596
 20
95.703965
 30
0.0
 10
27.500194
 20
95.488200
 30
0.0
 10
30.522065
 20
93.473491
 30
0.0
 10
31.825244
 20
90.809890
 30
0.0
  0
SPLINE
  5
3a3
100
AcDbEntity
  8
0
 62
7
100
AcDbSpline
 70
8
 71
3
 72
8
 73
4
 74
0
 40
0
 40
0
 40
0
 40
0
 40
1
 40
1
 40
1
 40
1
 10
31.825244
 20
90.809890
 30
0.0
 10
32.172341
 20
90.100450
 30
0.0
 10
32.494766
 20
89.520000
 30
0.0
 10
32.541744
 20
89.520000
 30
0.0
  0
SPLINE
  5
3a4
100
AcDbEntity
  8
0
 62
7
100
AcDbSpline
 70
8
 71
3
 72
8
 73
4
 74
0
 40
0
 40
0
 40
0
 40
0
 40
1
 40
1
 40
1
 40
1
 10
32.541744
 20
89.520000
 30
0.0
 10
32.588724
 20
89.520000
 30
0.0
 10
33.116436
 20
89.757708
 30
0.0
 10
33.714442
 20
90.048242
 30
0.0
  0
LWPOLYLINE
  5
3a5
100
AcDbEntity
  8
0
 62
7
100
AcDbPolyline
 90
5
 70
0
 10
92.513198
 20
84.382627
 30
0.0
 10
93.557310
 20
82.920000
 30
0.0
 10
95.863935
 20
82.946812
 30
0.0
 10
98.170545
 20
82.973625
 30
0.0
 10
98.944785
 20
84.146816
 30
0.0
  0
SPLINE
  5
3a6
100
AcDbEntity
  8
0
 62
7
100
AcDbSpline
 70
8
 71
3
 72
8
 73
4
 74
0
 40
0
 40
0
 40
0
 40
0
 40
1
 40
1
 40
1
 40
1
 10
51.444718
 20
90.064877
 30
0.0
 10
51.712910
 20
91.133449
 30
0.0
 10
53.151367
 20
92.962991
 30
0.0
 10
54.509280
 20
93.962629
 30
0.0
  0
SPLINE
  5
3a7
100
AcDbEntity
  8
0
 62
7
100
AcDbSpline
 70
8
 71
3
 72
8
 73
4
 74
0
 40
0
 40
0
 40
0
 40
0
 40
1
 40
1
 40
1
 40
1
 10
54.509280
 20
93.962629
 30
0.0
 10
58.941640
 20
97.225547
 30
0.0
 10
65.438998
 20
95.687213
 30
0.0
 10
67.825243
 20
90.809902
 30
0.0
  0
SPLINE
  5
3a8
100
AcDbEntity
  8
0
 62
7
100
AcDbSpline
 70
8
 71
3
 72
8
 73
4
 74
0
 40
0
 40
0
 40
0
 40
0
 40
1
 40
1
 40
1
 40
1
 10
67.825243
 20
90.809902
 30
0.0
 10
68.172341
 20
90.100462
 30
0.0
 10
68.494766
 20
89.520013
 30
0.0
 10
68.541744
 20
89.520013
 30
0.0
  0
SPLINE
  5
3a9
100
AcDbEntity
  8
0
 62
7
100
AcDbSpline
 70
8
 71
3
 72
8
 73
4
 74
0
 40
0
 40
0
 40
0
 40
0
 40
1
 40
1
 40
1
 40
1
 10
68.541744
 20
89.520013
 30
0.0
 10
68.588724
 20
89.520013
 30
0.0
 10
69.116436
 20
89.757721
 30
0.0
 10
69.714442
 20
90.048255
 30
0.0
  0
SPLINE
  5
3aa
100
AcDbEntity
  8
0
 62
7
100
AcDbSpline
 70
8
 71
3
 72
8
 73
4
 74
0
 40
0
 40
0
 40
0
 40
0
 40
1
 40
1
 40
1
 40
1
 10
69.714442
 20
90.048255
 30
0.0
 10
70.967604
 20
90.657087
 30
0.0
 10
70.969606
 20
90.787717
 30
0.0
 10
69.757334
 20
92.845673
 30
0.0
  0
SPLINE
  5
3ab
100
AcDbEntity
  8
0
 62
7
100
AcDbSpline
 70
8
 71
3
 72
8
 73
4
 74
0
 40
0
 40
0
 40
0
 40
0
 40
1
 40
1
 40
1
 40
1
 10
69.757334
 20
92.845673
 30
0.0
 10
66.700742
 20
98.034567
 30
0.0
 10
59.557462
 20
99.950977
 30
0.0
 10
54.180725
 20
97.024587
 30
0.0
  0
SPLINE
  5
3ac
100
AcDbEntity
  8
0
 62
7
100
AcDbSpline
 70
8
 71
3
 72
8
 73
4
 74
0
 40
0
 40
0
 40
0
 40
0
 40
1
 40
1
 40
1
 40
1
 10
54.180725
 20
97.024587
 30
0.0
 10
51.977396
 20
95.825387
 30
0.0
 10
48.970058
 20
92.307265
 30
0.0
 10
48.962249
 20
90.919779
 30
0.0
  0
SPLINE
  5
3ad
100
AcDbEntity
  8
0
 62
7
100
AcDbSpline
 70
8
 71
3
 72
8
 73
4
 74
0
 40
0
 40
0
 40
0
 40
0
 40
1
 40
1
 40
1
 40
1
 10
48.962249
 20
90.919779
 30
0.0
 10
48.960074
 20
90.556292
 30
0.0
 10
50.366045
 20
89.627689
 30
0.0
 10
51.033980
 20
89.551333
 30
0.0
  0
SPLINE
  5
3ae
100
AcDbEntity
  8
0
 62
7
100
AcDbSpline
 70
8
 71
3
 72
8
 73
4
 74
0
 40
0
 40
0
 40
0
 40
0
 40
1
 40
1
 40
1
 40
1
 10
51.033980
 20
89.551333
 30
0.0
 10
51.184670
 20
89.534098
 30
0.0
 10
51.369500
 20
89.765201
 30
0.0
 10
51.444716
 20
90.064877
 30
0.0
  0
LWPOLYLINE
  5
3af
100
AcDbEntity
  8
0
 62
7
100
AcDbPolyline
 90
1
 70
1
 10
33.714442
 20
90.048242
 30
0.0
  0
SPLINE
  5
3b0
100
AcDbEntity
  8
0
 62
7
100
AcDbSpline
 70
8
 71
3
 72
8
 73
4
 74
0
 40
0
 40
0
 40
0
 40
0
 40
1
 40
1
 40
1
 40
1
 10
87.735893
 20
90.751379
 30
0.0
 10
88.576800
 20
92.410822
 30
0.0
 10
90.304192
 20
94.085038
 30
0.0
 10
92.045235
 20
94.928055
 30
0.0
  0
SPLINE
  5
3b1
100
AcDbEntity
  8
0
 62
7
100
AcDbSpline
 70
8
 71
3
 72
8
 73
4
 74
0
 40
0
 40
0
 40
0
 40
0
 40
1
 40
1
 40
1
 40
1
 10
92.045235
 20
94.928055
 30
0.0
 10
93.312900
 20
95.541865
 30
0.0
 10
93.745537
 20
95.623779
 30
0.0
 10
95.760000
 20
95.631394
 30
0.0
  0
SPLINE
  5
3b2
100
AcDbEntity
  8
0
 62
7
100
AcDbSpline
 70
8
 71
3
 72
8
 73
4
 74
0
 40
0
 40
0
 40
0
 40
0
 40
1
 40
1
 40
1
 40
1
 10
95.760000
 20
95.631394
 30
0.0
 10
97.742153
 20
95.638894
 30
0.0
 10
98.219272
 20
95.555987
 30
0.0
 10
99.412335
 20
94.996799
 30
0.0
  0
SPLINE
  5
3b3
100
AcDbEntity
  8
0
 62
7
100
AcDbSpline
 70
8
 71
3
 72
8
 73
4
 74
0
 40
0
 40
0
 40
0
 40
0
 40
1
 40
1
 40
1
 40
1
 10
99.412335
 20
94.996799
 30
0.0
 10
101.208285
 20
94.155037
 30
0.0
 10
103.037940
 20
92.419091
 30
0.0
 10
103.825245
 20
90.809902
 30
0.0
  0
SPLINE
  5
3b4
100
AcDbEntity
  8
0
 62
7
100
AcDbSpline
 70
8
 71
3
 72
8
 73
4
 74
0
 40
0
 40
0
 40
0
 40
0
 40
1
 40
1
 40
1
 40
1
 10
103.825245
 20
90.809902
 30
0.0
 10
104.172338
 20
90.100462
 30
0.0
 10
104.494770
 20
89.520013
 30
0.0
 10
104.541742
 20
89.520013
 30
0.0
  0
SPLINE
  5
3b5
100
AcDbEntity
  8
0
 62
7
100
AcDbSpline
 70
8
 71
3
 72
8
 73
4
 74
0
 40
0
 40
0
 40
0
 40
0
 40
1
 40
1
 40
1
 40
1
 10
104.541742
 20
89.520013
 30
0.0
 10
104.588693
 20
89.520013
 30
0.0
 10
105.116437
 20
89.757721
 30
0.0
 10
105.714443
 20
90.048255
 30
0.0
  0
SPLINE
  5
3b6
100
AcDbEntity
  8
0
 62
7
100
AcDbSpline
 70
8
 71
3
 72
8
 73
4
 74
0
 40
0
 40
0
 40
0
 40
0
 40
1
 40
1
 40
1
 40
1
 10
105.714443
 20
90.048255
 30
0.0
 10
106.940378
 20
90.643863
 30
0.0
 10
106.951485
 20
90.791245
 30
0.0
 10
105.907432
 20
92.609919
 30
0.0
  0
SPLINE
  5
3b7
100
AcDbEntity
  8
0
 62
7
100
AcDbSpline
 70
8
 71
3
 72
8
 73
4
 74
0
 40
0
 40
0
 40
0
 40
0
 40
1
 40
1
 40
1
 40
1
 10
105.907432
 20
92.609919
 30
0.0
 10
103.901467
 20
96.104195
 30
0.0
 10
99.921712
 20
98.407855
 30
0.0
 10
95.914717
 20
98.394145
 30
0.0
  0
SPLINE
  5
3b8
100
AcDbEntity
  8
0
 62
7
100
AcDbSpline
 70
8
 71
3
 72
8
 73
4
 74
0
 40
0
 40
0
 40
0
 40
0
 40
1
 40
1
 40
1
 40
1
 10
95.914717
 20
98.394145
 30
0.0
 10
94.971623
 20
98.390920
 30
0.0
 10
93.714000
 20
98.276347
 30
0.0
 10
93.120000
 20
98.139543
 30
0.0
  0
SPLINE
  5
3b9
100
AcDbEntity
  8
0
 62
7
100
AcDbSpline
 70
8
 71
3
 72
8
 73
4
 74
0
 40
0
 40
0
 40
0
 40
0
 40
1
 40
1
 40
1
 40
1
 10
93.120000
 20
98.139543
 30
0.0
 10
91.330140
 20
97.727319
 30
0.0
 10
89.088720
 20
96.475985
 30
0.0
 10
87.710332
 20
95.119443
 30
0.0
  0
SPLINE
  5
3ba
100
AcDbEntity
  8
0
 62
7
100
AcDbSpline
 70
8
 71
3
 72
8
 73
4
 74
0
 40
0
 40
0
 40
0
 40
0
 40
1
 40
1
 40
1
 40
1
 10
87.710332
 20
95.119443
 30
0.0
 10
86.417730
 20
93.847328
 30
0.0
 10
84.965970
 20
91.649461
 30
0.0
 10
84.962902
 20
90.960013
 30
0.0
  0
SPLINE
  5
3bb
100
AcDbEntity
  8
0
 62
7
100
AcDbSpline
 70
8
 71
3
 72
8
 73
4
 74
0
 40
0
 40
0
 40
0
 40
0
 40
1
 40
1
 40
1
 40
1
 10
84.962902
 20
90.960013
 30
0.0
 10
84.961402
 20
90.653672
 30
0.0
 10
86.395582
 20
89.625975
 30
0.0
 10
86.935958
 20
89.546041
 30
0.0
  0
SPLINE
  5
3bc
100
AcDbEntity
  8
0
 62
7
100
AcDbSpline
 70
8
 71
3
 72
8
 73
4
 74
0
 40
0
 40
0
 40
0
 40
0
 40
1
 40
1
 40
1
 40
1
 10
86.935958
 20
89.546041
 30
0.0
 10
87.032730
 20
89.531716
 30
0.0
 10
87.392708
 20
90.074127
 30
0.0
 10
87.735893
 20
90.751379
 30
0.0
  0
LWPOLYLINE
  5
3bd
100
AcDbEntity
  8
0
 62
7
100
AcDbPolyline
 90
1
 70
1
 10
51.444716
 20
90.064877
 30
0.0
  0
SPLINE
  5
3be
100
AcDbEntity
  8
0
 62
7
100
AcDbSpline
 70
8
 71
3
 72
8
 73
4
 74
0
 40
0
 40
0
 40
0
 40
0
 40
1
 40
1
 40
1
 40
1
 10
38.198594
 20
91.594011
 30
0.0
 10
39.085416
 20
91.735820
 30
0.0
 10
39.143972
 20
91.792703
 30
0.0
 10
39.000994
 20
92.373493
 30
0.0
  0
SPLINE
  5
3bf
100
AcDbEntity
  8
0
 62
7
100
AcDbSpline
 70
8
 71
3
 72
8
 73
4
 74
0
 40
0
 40
0
 40
0
 40
0
 40
1
 40
1
 40
1
 40
1
 10
39.000994
 20
92.373493
 30
0.0
 10
38.736444
 20
93.448131
 30
0.0
 10
37.230886
 20
95.936775
 30
0.0
 10
35.981714
 20
97.364273
 30
0.0
  0
SPLINE
  5
3c0
100
AcDbEntity
  8
0
 62
7
100
AcDbSpline
 70
8
 71
3
 72
8
 73
4
 74
0
 40
0
 40
0
 40
0
 40
0
 40
1
 40
1
 40
1
 40
1
 10
35.981714
 20
97.364273
 30
0.0
 10
33.352630
 20
100.368677
 30
0.0
 10
29.646082
 20
102.358991
 30
0.0
 10
25.781528
 20
102.841493
 30
0.0
  0
LWPOLYLINE
  5
3c1
100
AcDbEntity
  8
0
 62
7
100
AcDbPolyline
 90
1
 70
1
 10
87.735893
 20
90.751379
 30
0.0
  0
SPLINE
  5
3c2
100
AcDbEntity
  8
0
 62
7
100
AcDbSpline
 70
8
 71
3
 72
8
 73
4
 74
0
 40
0
 40
0
 40
0
 40
0
 40
1
 40
1
 40
1
 40
1
 10
23.692226
 20
100.315803
 30
0.0
 10
26.725822
 20
100.304786
 30
0.0
 10
30.508032
 20
98.869124
 30
0.0
 10
32.782646
 20
96.865229
 30
0.0
  0
SPLINE
  5
3c3
100
AcDbEntity
  8
0
 62
7
100
AcDbSpline
 70
8
 71
3
 72
8
 73
4
 74
0
 40
0
 40
0
 40
0
 40
0
 40
1
 40
1
 40
1
 40
1
 10
32.782646
 20
96.865229
 30
0.0
 10
34.065648
 20
95.734925
 30
0.0
 10
35.797412
 20
93.292745
 30
0.0
 10
36.263014
 20
91.957114
 30
0.0
  0
SPLINE
  5
3c4
100
AcDbEntity
  8
0
 62
7
100
AcDbSpline
 70
8
 71
3
 72
8
 73
4
 74
0
 40
0
 40
0
 40
0
 40
0
 40
1
 40
1
 40
1
 40
1
 10
36.263014
 20
91.957114
 30
0.0
 10
36.450197
 20
91.420163
 30
0.0
 10
36.649028
 20
91.213477
 30
0.0
 10
36.889584
 20
91.305787
 30
0.0
  0
SPLINE
  5
3c5
100
AcDbEntity
  8
0
 62
7
100
AcDbSpline
 70
8
 71
3
 72
8
 73
4
 74
0
 40
0
 40
0
 40
0
 40
0
 40
1
 40
1
 40
1
 40
1
 10
36.889584
 20
91.305787
 30
0.0
 10
37.083392
 20
91.380157
 30
0.0
 10
37.672445
 20
91.509843
 30
0.0
 10
38.198594
 20
91.593977
 30
0.0
  0
LWPOLYLINE
  5
3c6
100
AcDbEntity
  8
0
 62
7
100
AcDbPolyline
 90
5
 70
0
 10
25.781528
 20
102.841493
 30
0.0
 10
24.563052
 20
102.993623
 30
0.0
 10
23.553752
 20
101.656813
 30
0.0
 10
22.544450
 20
100.320003
 30
0.0
 10
23.692226
 20
100.315803
 30
0.0
  0
SPLINE
  5
3c7
100
AcDbEntity
  8
0
 62
7
100
AcDbSpline
 70
8
 71
3
 72
8
 73
4
 74
0
 40
0
 40
0
 40
0
 40
0
 40
1
 40
1
 40
1
 40
1
 10
47.766394
 20
92.820000
 30
0.0
 10
48.841080
 20
95.017428
 30
0.0
 10
51.606204
 20
97.771364
 30
0.0
 10
53.811154
 20
98.840300
 30
0.0
  0
SPLINE
  5
3c8
100
AcDbEntity
  8
0
 62
7
100
AcDbSpline
 70
8
 71
3
 72
8
 73
4
 74
0
 40
0
 40
0
 40
0
 40
0
 40
1
 40
1
 40
1
 40
1
 10
53.811154
 20
98.840300
 30
0.0
 10
55.572394
 20
99.694128
 30
0.0
 10
58.069142
 20
100.311665
 30
0.0
 10
59.760000
 20
100.311665
 30
0.0
  0
SPLINE
  5
3c9
100
AcDbEntity
  8
0
 62
7
100
AcDbSpline
 70
8
 71
3
 72
8
 73
4
 74
0
 40
0
 40
0
 40
0
 40
0
 40
1
 40
1
 40
1
 40
1
 10
59.760000
 20
100.311665
 30
0.0
 10
64.618260
 20
100.311665
 30
0.0
 10
69.727204
 20
97.169285
 30
0.0
 10
71.774524
 20
92.921836
 30
0.0
  0
SPLINE
  5
3ca
100
AcDbEntity
  8
0
 62
7
100
AcDbSpline
 70
8
 71
3
 72
8
 73
4
 74
0
 40
0
 40
0
 40
0
 40
0
 40
1
 40
1
 40
1
 40
1
 10
71.774524
 20
92.921836
 30
0.0
 10
72.313762
 20
91.803115
 30
0.0
 10
72.711302
 20
91.249454
 30
0.0
 10
72.920980
 20
91.325155
 30
0.0
  0
SPLINE
  5
3cb
100
AcDbEntity
  8
0
 62
7
100
AcDbSpline
 70
8
 71
3
 72
8
 73
4
 74
0
 40
0
 40
0
 40
0
 40
0
 40
1
 40
1
 40
1
 40
1
 10
72.920980
 20
91.325155
 30
0.0
 10
73.097520
 20
91.388891
 30
0.0
 10
73.664520
 20
91.508606
 30
0.0
 10
74.180981
 20
91.591193
 30
0.0
  0
SPLINE
  5
3cc
100
AcDbEntity
  8
0
 62
7
100
AcDbSpline
 70
8
 71
3
 72
8
 73
4
 74
0
 40
0
 40
0
 40
0
 40
0
 40
1
 40
1
 40
1
 40
1
 10
74.180981
 20
91.591193
 30
0.0
 10
74.697442
 20
91.673779
 30
0.0
 10
75.120000
 20
91.854490
 30
0.0
 10
75.120000
 20
91.992770
 30
0.0
  0
SPLINE
  5
3cd
100
AcDbEntity
  8
0
 62
7
100
AcDbSpline
 70
8
 71
3
 72
8
 73
4
 74
0
 40
0
 40
0
 40
0
 40
0
 40
1
 40
1
 40
1
 40
1
 10
75.120000
 20
91.992770
 30
0.0
 10
75.120000
 20
92.660342
 30
0.0
 10
73.260698
 20
95.882798
 30
0.0
 10
72.106574
 20
97.215504
 30
0.0
  0
SPLINE
  5
3ce
100
AcDbEntity
  8
0
 62
7
100
AcDbSpline
 70
8
 71
3
 72
8
 73
4
 74
0
 40
0
 40
0
 40
0
 40
0
 40
1
 40
1
 40
1
 40
1
 10
72.106574
 20
97.215504
 30
0.0
 10
66.966676
 20
103.150714
 30
0.0
 10
58.720264
 20
104.630746
 30
0.0
 10
51.840000
 20
100.852862
 30
0.0
  0
SPLINE
  5
3cf
100
AcDbEntity
  8
0
 62
7
100
AcDbSpline
 70
8
 71
3
 72
8
 73
4
 74
0
 40
0
 40
0
 40
0
 40
0
 40
1
 40
1
 40
1
 40
1
 10
51.840000
 20
100.852862
 30
0.0
 10
49.573816
 20
99.608522
 30
0.0
 10
46.672596
 20
96.598366
 30
0.0
 10
45.543562
 20
94.320000
 30
0.0
  0
SPLINE
  5
3d0
100
AcDbEntity
  8
0
 62
7
100
AcDbSpline
 70
8
 71
3
 72
8
 73
4
 74
0
 40
0
 40
0
 40
0
 40
0
 40
1
 40
1
 40
1
 40
1
 10
45.543562
 20
94.320000
 30
0.0
 10
45.052970
 20
93.330000
 30
0.0
 10
44.621974
 20
92.371416
 30
0.0
 10
44.585788
 20
92.189813
 30
0.0
  0
SPLINE
  5
3d1
100
AcDbEntity
  8
0
 62
7
100
AcDbSpline
 70
8
 71
3
 72
8
 73
4
 74
0
 40
0
 40
0
 40
0
 40
0
 40
1
 40
1
 40
1
 40
1
 10
44.585788
 20
92.189813
 30
0.0
 10
44.530926
 20
91.914461
 30
0.0
 10
45.433901
 20
91.528308
 30
0.0
 10
46.827053
 20
91.231346
 30
0.0
  0
SPLINE
  5
3d2
100
AcDbEntity
  8
0
 62
7
100
AcDbSpline
 70
8
 71
3
 72
8
 73
4
 74
0
 40
0
 40
0
 40
0
 40
0
 40
1
 40
1
 40
1
 40
1
 10
46.827053
 20
91.231346
 30
0.0
 10
46.907933
 20
91.214111
 30
0.0
 10
47.330635
 20
91.929000
 30
0.0
 10
47.766394
 20
92.820000
 30
0.0
  0
LWPOLYLINE
  5
3d3
100
AcDbEntity
  8
0
 62
7
100
AcDbPolyline
 90
1
 70
1
 10
38.198594
 20
91.593977
 30
0.0
  0
SPLINE
  5
3d4
100
AcDbEntity
  8
0
 62
7
100
AcDbSpline
 70
8
 71
3
 72
8
 73
4
 74
0
 40
0
 40
0
 40
0
 40
0
 40
1
 40
1
 40
1
 40
1
 10
83.766390
 20
92.820000
 30
0.0
 10
84.860190
 20
95.056504
 30
0.0
 10
87.625163
 20
97.812808
 30
0.0
 10
89.821027
 20
98.855652
 30
0.0
  0
SPLINE
  5
3d5
100
AcDbEntity
  8
0
 62
7
100
AcDbSpline
 70
8
 71
3
 72
8
 73
4
 74
0
 40
0
 40
0
 40
0
 40
0
 40
1
 40
1
 40
1
 40
1
 10
89.821027
 20
98.855652
 30
0.0
 10
92.748352
 20
100.245878
 30
0.0
 10
95.498310
 20
100.595902
 30
0.0
 10
98.498985
 20
99.960211
 30
0.0
  0
SPLINE
  5
3d6
100
AcDbEntity
  8
0
 62
7
100
AcDbSpline
 70
8
 71
3
 72
8
 73
4
 74
0
 40
0
 40
0
 40
0
 40
0
 40
1
 40
1
 40
1
 40
1
 10
98.498985
 20
99.960211
 30
0.0
 10
102.763013
 20
99.056880
 30
0.0
 10
106.770990
 20
95.845730
 30
0.0
 10
108.153810
 20
92.224868
 30
0.0
  0
SPLINE
  5
3d7
100
AcDbEntity
  8
0
 62
7
100
AcDbSpline
 70
8
 71
3
 72
8
 73
4
 74
0
 40
0
 40
0
 40
0
 40
0
 40
1
 40
1
 40
1
 40
1
 10
108.153810
 20
92.224868
 30
0.0
 10
108.430192
 20
91.501181
 30
0.0
 10
108.660390
 20
91.217870
 30
0.0
 10
108.897975
 20
91.309036
 30
0.0
  0
SPLINE
  5
3d8
100
AcDbEntity
  8
0
 62
7
100
AcDbSpline
 70
8
 71
3
 72
8
 73
4
 74
0
 40
0
 40
0
 40
0
 40
0
 40
1
 40
1
 40
1
 40
1
 10
108.897975
 20
91.309036
 30
0.0
 10
109.087170
 20
91.381636
 30
0.0
 10
109.664520
 20
91.508606
 30
0.0
 10
110.180977
 20
91.591193
 30
0.0
  0
SPLINE
  5
3d9
100
AcDbEntity
  8
0
 62
7
100
AcDbSpline
 70
8
 71
3
 72
8
 73
4
 74
0
 40
0
 40
0
 40
0
 40
0
 40
1
 40
1
 40
1
 40
1
 10
110.180977
 20
91.591193
 30
0.0
 10
110.697442
 20
91.673779
 30
0.0
 10
111.120000
 20
91.826592
 30
0.0
 10
111.120000
 20
91.930776
 30
0.0
  0
SPLINE
  5
3da
100
AcDbEntity
  8
0
 62
7
100
AcDbSpline
 70
8
 71
3
 72
8
 73
4
 74
0
 40
0
 40
0
 40
0
 40
0
 40
1
 40
1
 40
1
 40
1
 10
111.120000
 20
91.930776
 30
0.0
 10
111.120000
 20
92.034962
 30
0.0
 10
110.908890
 20
92.612698
 30
0.0
 10
110.650875
 20
93.214634
 30
0.0
  0
SPLINE
  5
3db
100
AcDbEntity
  8
0
 62
7
100
AcDbSpline
 70
8
 71
3
 72
8
 73
4
 74
0
 40
0
 40
0
 40
0
 40
0
 40
1
 40
1
 40
1
 40
1
 10
110.650875
 20
93.214634
 30
0.0
 10
108.004125
 20
99.389254
 30
0.0
 10
101.474347
 20
103.352314
 30
0.0
 10
94.735552
 20
102.873982
 30
0.0
  0
SPLINE
  5
3dc
100
AcDbEntity
  8
0
 62
7
100
AcDbSpline
 70
8
 71
3
 72
8
 73
4
 74
0
 40
0
 40
0
 40
0
 40
0
 40
1
 40
1
 40
1
 40
1
 10
94.735552
 20
102.873982
 30
0.0
 10
88.939410
 20
102.462559
 30
0.0
 10
83.597310
 20
98.861668
 30
0.0
 10
81.225465
 20
93.767400
 30
0.0
  0
SPLINE
  5
3dd
100
AcDbEntity
  8
0
 62
7
100
AcDbSpline
 70
8
 71
3
 72
8
 73
4
 74
0
 40
0
 40
0
 40
0
 40
0
 40
1
 40
1
 40
1
 40
1
 10
81.225465
 20
93.767400
 30
0.0
 10
80.398777
 20
91.991824
 30
0.0
 10
80.445315
 20
91.802660
 30
0.0
 10
81.780000
 20
91.513272
 30
0.0
  0
SPLINE
  5
3de
100
AcDbEntity
  8
0
 62
7
100
AcDbSpline
 70
8
 71
3
 72
8
 73
4
 74
0
 40
0
 40
0
 40
0
 40
0
 40
1
 40
1
 40
1
 40
1
 10
81.780000
 20
91.513272
 30
0.0
 10
82.407000
 20
91.377324
 30
0.0
 10
82.932172
 20
91.251223
 30
0.0
 10
82.947052
 20
91.233048
 30
0.0
  0
SPLINE
  5
3df
100
AcDbEntity
  8
0
 62
7
100
AcDbSpline
 70
8
 71
3
 72
8
 73
4
 74
0
 40
0
 40
0
 40
0
 40
0
 40
1
 40
1
 40
1
 40
1
 10
82.947052
 20
91.233048
 30
0.0
 10
82.961902
 20
91.214883
 30
0.0
 10
83.330632
 20
91.929000
 30
0.0
 10
83.766390
 20
92.820000
 30
0.0
  0
LWPOLYLINE
  5
3e0
100
AcDbEntity
  8
0
 62
7
100
AcDbPolyline
 90
1
 70
1
 10
47.766394
 20
92.820000
 30
0.0
  0
SPLINE
  5
3e1
100
AcDbEntity
  8
0
 62
7
100
AcDbSpline
 70
8
 71
3
 72
8
 73
4
 74
0
 40
0
 40
0
 40
0
 40
0
 40
1
 40
1
 40
1
 40
1
 10
42.340370
 20
92.065678
 30
0.0
 10
42.549168
 20
92.145800
 30
0.0
 10
42.720000
 20
92.349293
 30
0.0
 10
42.720000
 20
92.517886
 30
0.0
  0
SPLINE
  5
3e2
100
AcDbEntity
  8
0
 62
7
100
AcDbSpline
 70
8
 71
3
 72
8
 73
4
 74
0
 40
0
 40
0
 40
0
 40
0
 40
1
 40
1
 40
1
 40
1
 10
42.720000
 20
92.517886
 30
0.0
 10
42.720000
 20
93.253378
 30
0.0
 10
44.745720
 20
96.771931
 30
0.0
 10
46.092902
 20
98.376416
 30
0.0
  0
LWPOLYLINE
  5
3e3
100
AcDbEntity
  8
0
 62
7
100
AcDbPolyline
 90
1
 70
1
 10
83.766390
 20
92.820000
 30
0.0
  0
SPLINE
  5
3e4
100
AcDbEntity
  8
0
 62
7
100
AcDbSpline
 70
8
 71
3
 72
8
 73
4
 74
0
 40
0
 40
0
 40
0
 40
0
 40
1
 40
1
 40
1
 40
1
 10
46.889162
 20
100.832186
 30
0.0
 10
46.518168
 20
101.219422
 30
0.0
 10
45.617335
 20
101.829595
 30
0.0
 10
44.887313
 20
102.188126
 30
0.0
  0
SPLINE
  5
3e5
100
AcDbEntity
  8
0
 62
7
100
AcDbSpline
 70
8
 71
3
 72
8
 73
4
 74
0
 40
0
 40
0
 40
0
 40
0
 40
1
 40
1
 40
1
 40
1
 10
44.887313
 20
102.188126
 30
0.0
 10
43.801560
 20
102.721363
 30
0.0
 10
43.232414
 20
102.840000
 30
0.0
 10
41.760000
 20
102.840000
 30
0.0
  0
SPLINE
  5
3e6
100
AcDbEntity
  8
0
 62
7
100
AcDbSpline
 70
8
 71
3
 72
8
 73
4
 74
0
 40
0
 40
0
 40
0
 40
0
 40
1
 40
1
 40
1
 40
1
 10
41.760000
 20
102.840000
 30
0.0
 10
39.680602
 20
102.840000
 30
0.0
 10
38.178564
 20
102.242566
 30
0.0
 10
36.805246
 20
100.869245
 30
0.0
  0
LWPOLYLINE
  5
3e7
100
AcDbEntity
  8
0
 62
7
100
AcDbPolyline
 90
3
 70
0
 10
46.092902
 20
98.376416
 30
0.0
 10
47.563699
 20
100.128122
 30
0.0
 10
46.889162
 20
100.832186
 30
0.0
  0
SPLINE
  5
3e8
100
AcDbEntity
  8
0
 62
7
100
AcDbSpline
 70
8
 71
3
 72
8
 73
4
 74
0
 40
0
 40
0
 40
0
 40
0
 40
1
 40
1
 40
1
 40
1
 10
37.193446
 20
98.721482
 30
0.0
 10
38.592480
 20
97.190714
 30
0.0
 10
40.144445
 20
94.680732
 30
0.0
 10
40.699934
 20
93.050460
 30
0.0
  0
SPLINE
  5
3e9
100
AcDbEntity
  8
0
 62
7
100
AcDbSpline
 70
8
 71
3
 72
8
 73
4
 74
0
 40
0
 40
0
 40
0
 40
0
 40
1
 40
1
 40
1
 40
1
 10
40.699934
 20
93.050460
 30
0.0
 10
41.086652
 20
91.915508
 30
0.0
 10
41.422942
 20
91.713626
 30
0.0
 10
42.340370
 20
92.065678
 30
0.0
  0
LWPOLYLINE
  5
3ea
100
AcDbEntity
  8
0
 62
7
100
AcDbPolyline
 90
3
 70
0
 10
36.805246
 20
100.869245
 30
0.0
 10
35.982476
 20
100.046474
 30
0.0
 10
37.193446
 20
98.721482
 30
0.0
  0
SPLINE
  5
3eb
100
AcDbEntity
  8
0
 62
7
100
AcDbSpline
 70
8
 71
3
 72
8
 73
4
 74
0
 40
0
 40
0
 40
0
 40
0
 40
1
 40
1
 40
1
 40
1
 10
78.635010
 20
92.340000
 30
0.0
 10
79.166550
 20
93.935246
 30
0.0
 10
80.902762
 20
96.958968
 30
0.0
 10
82.118828
 20
98.407288
 30
0.0
  0
LWPOLYLINE
  5
3ec
100
AcDbEntity
  8
0
 62
7
100
AcDbPolyline
 90
1
 70
1
 10
42.340370
 20
92.065678
 30
0.0
  0
SPLINE
  5
3ed
100
AcDbEntity
  8
0
 62
7
100
AcDbSpline
 70
8
 71
3
 72
8
 73
4
 74
0
 40
0
 40
0
 40
0
 40
0
 40
1
 40
1
 40
1
 40
1
 10
82.924380
 20
100.795426
 30
0.0
 10
82.572758
 20
101.162441
 30
0.0
 10
81.725925
 20
101.772614
 30
0.0
 10
81.042533
 20
102.151364
 30
0.0
  0
SPLINE
  5
3ee
100
AcDbEntity
  8
0
 62
7
100
AcDbSpline
 70
8
 71
3
 72
8
 73
4
 74
0
 40
0
 40
0
 40
0
 40
0
 40
1
 40
1
 40
1
 40
1
 10
81.042533
 20
102.151364
 30
0.0
 10
79.962405
 20
102.749990
 30
0.0
 10
79.549050
 20
102.839532
 30
0.0
 10
77.880000
 20
102.836412
 30
0.0
  0
SPLINE
  5
3ef
100
AcDbEntity
  8
0
 62
7
100
AcDbSpline
 70
8
 71
3
 72
8
 73
4
 74
0
 40
0
 40
0
 40
0
 40
0
 40
1
 40
1
 40
1
 40
1
 10
77.880000
 20
102.836412
 30
0.0
 10
75.619208
 20
102.832212
 30
0.0
 10
74.247142
 20
102.311144
 30
0.0
 10
72.869784
 20
100.933784
 30
0.0
  0
LWPOLYLINE
  5
3f0
100
AcDbEntity
  8
0
 62
7
100
AcDbPolyline
 90
3
 70
0
 10
82.118828
 20
98.407288
 30
0.0
 10
83.563703
 20
100.128122
 30
0.0
 10
82.924380
 20
100.795426
 30
0.0
  0
SPLINE
  5
3f1
100
AcDbEntity
  8
0
 62
7
100
AcDbSpline
 70
8
 71
3
 72
8
 73
4
 74
0
 40
0
 40
0
 40
0
 40
0
 40
1
 40
1
 40
1
 40
1
 10
73.193446
 20
98.721482
 30
0.0
 10
74.533576
 20
97.255162
 30
0.0
 10
76.041202
 20
94.811040
 30
0.0
 10
76.685648
 20
93.060000
 30
0.0
  0
SPLINE
  5
3f2
100
AcDbEntity
  8
0
 62
7
100
AcDbSpline
 70
8
 71
3
 72
8
 73
4
 74
0
 40
0
 40
0
 40
0
 40
0
 40
1
 40
1
 40
1
 40
1
 10
76.685648
 20
93.060000
 30
0.0
 10
77.054025
 20
92.059076
 30
0.0
 10
77.189993
 20
91.920000
 30
0.0
 10
77.800140
 20
91.920000
 30
0.0
  0
SPLINE
  5
3f3
100
AcDbEntity
  8
0
 62
7
100
AcDbSpline
 70
8
 71
3
 72
8
 73
4
 74
0
 40
0
 40
0
 40
0
 40
0
 40
1
 40
1
 40
1
 40
1
 10
77.800140
 20
91.920000
 30
0.0
 10
78.248662
 20
91.920000
 30
0.0
 10
78.544687
 20
92.068922
 30
0.0
 10
78.635010
 20
92.340000
 30
0.0
  0
LWPOLYLINE
  5
3f4
100
AcDbEntity
  8
0
 62
7
100
AcDbPolyline
 90
3
 70
0
 10
72.869784
 20
100.933784
 30
0.0
 10
71.982476
 20
100.046474
 30
0.0
 10
73.193446
 20
98.721482
 30
0.0
  0
SPLINE
  5
3f5
100
AcDbEntity
  8
0
 62
7
100
AcDbSpline
 70
8
 71
3
 72
8
 73
4
 74
0
 40
0
 40
0
 40
0
 40
0
 40
1
 40
1
 40
1
 40
1
 10
113.730075
 20
93.419282
 30
0.0
 10
112.752390
 20
95.356072
 30
0.0
 10
111.359858
 20
97.642910
 30
0.0
 10
109.984695
 20
99.570034
 30
0.0
  0
LWPOLYLINE
  5
3f6
100
AcDbEntity
  8
0
 62
7
100
AcDbPolyline
 90
1
 70
1
 10
78.635010
 20
92.340000
 30
0.0
  0
SPLINE
  5
3f7
100
AcDbEntity
  8
0
 62
7
100
AcDbSpline
 70
8
 71
3
 72
8
 73
4
 74
0
 40
0
 40
0
 40
0
 40
0
 40
1
 40
1
 40
1
 40
1
 10
108.463088
 20
100.537574
 30
0.0
 10
108.040620
 20
99.977498
 30
0.0
 10
108.047490
 20
99.959012
 30
0.0
 10
109.093410
 20
98.840830
 30
0.0
  0
SPLINE
  5
3f8
100
AcDbEntity
  8
0
 62
7
100
AcDbSpline
 70
8
 71
3
 72
8
 73
4
 74
0
 40
0
 40
0
 40
0
 40
0
 40
1
 40
1
 40
1
 40
1
 10
109.093410
 20
98.840830
 30
0.0
 10
110.516925
 20
97.318980
 30
0.0
 10
111.890340
 20
95.150659
 30
0.0
 10
112.552845
 20
93.379140
 30
0.0
  0
SPLINE
  5
3f9
100
AcDbEntity
  8
0
 62
7
100
AcDbSpline
 70
8
 71
3
 72
8
 73
4
 74
0
 40
0
 40
0
 40
0
 40
0
 40
1
 40
1
 40
1
 40
1
 10
112.552845
 20
93.379140
 30
0.0
 10
113.047778
 20
92.055698
 30
0.0
 10
113.163083
 20
91.920000
 30
0.0
 10
113.792715
 20
91.920000
 30
0.0
  0
LWPOLYLINE
  5
3fa
100
AcDbEntity
  8
0
 62
7
100
AcDbPolyline
 90
3
 70
0
 10
109.984695
 20
99.570034
 30
0.0
 10
108.890205
 20
101.103820
 30
0.0
 10
108.463088
 20
100.537574
 30
0.0
  0
SPLINE
  5
3fb
100
AcDbEntity
  8
0
 62
7
100
AcDbSpline
 70
8
 71
3
 72
8
 73
4
 74
0
 40
0
 40
0
 40
0
 40
0
 40
1
 40
1
 40
1
 40
1
 10
35.884894
 20
102.442714
 30
0.0
 10
37.565494
 20
103.978688
 30
0.0
 10
39.451090
 20
104.690462
 30
0.0
 10
41.804762
 20
104.677344
 30
0.0
  0
SPLINE
  5
3fc
100
AcDbEntity
  8
0
 62
7
100
AcDbSpline
 70
8
 71
3
 72
8
 73
4
 74
0
 40
0
 40
0
 40
0
 40
0
 40
1
 40
1
 40
1
 40
1
 10
41.804762
 20
104.677344
 30
0.0
 10
42.772152
 20
104.671944
 30
0.0
 10
44.040166
 20
104.496689
 30
0.0
 10
44.629754
 20
104.286874
 30
0.0
  0
SPLINE
  5
3fd
100
AcDbEntity
  8
0
 62
7
100
AcDbSpline
 70
8
 71
3
 72
8
 73
4
 74
0
 40
0
 40
0
 40
0
 40
0
 40
1
 40
1
 40
1
 40
1
 10
44.629754
 20
104.286874
 30
0.0
 10
45.986484
 20
103.804058
 30
0.0
 10
47.870064
 20
102.600896
 30
0.0
 10
48.476858
 20
101.829482
 30
0.0
  0
SPLINE
  5
3fe
100
AcDbEntity
  8
0
 62
7
100
AcDbSpline
 70
8
 71
3
 72
8
 73
4
 74
0
 40
0
 40
0
 40
0
 40
0
 40
1
 40
1
 40
1
 40
1
 10
48.476858
 20
101.829482
 30
0.0
 10
48.734110
 20
101.502442
 30
0.0
 10
49.029055
 20
101.273731
 30
0.0
 10
49.132294
 20
101.321240
 30
0.0
  0
SPLINE
  5
3ff
100
AcDbEntity
  8
0
 62
7
100
AcDbSpline
 70
8
 71
3
 72
8
 73
4
 74
0
 40
0
 40
0
 40
0
 40
0
 40
1
 40
1
 40
1
 40
1
 10
49.132294
 20
101.321240
 30
0.0
 10
49.743470
 20
101.602484
 30
0.0
 10
51.120000
 20
102.553646
 30
0.0
 10
51.120000
 20
102.694718
 30
0.0
  0
SPLINE
  5
400
100
AcDbEntity
  8
0
 62
7
100
AcDbSpline
 70
8
 71
3
 72
8
 73
4
 74
0
 40
0
 40
0
 40
0
 40
0
 40
1
 40
1
 40
1
 40
1
 10
51.120000
 20
102.694718
 30
0.0
 10
51.120000
 20
103.209432
 30
0.0
 10
48.398458
 20
105.491822
 30
0.0
 10
46.922136
 20
106.215211
 30
0.0
  0
SPLINE
  5
401
100
AcDbEntity
  8
0
 62
7
100
AcDbSpline
 70
8
 71
3
 72
8
 73
4
 74
0
 40
0
 40
0
 40
0
 40
0
 40
1
 40
1
 40
1
 40
1
 10
46.922136
 20
106.215211
 30
0.0
 10
42.519458
 20
108.372494
 30
0.0
 10
37.476504
 20
107.608244
 30
0.0
 10
33.828578
 20
104.230908
 30
0.0
  0
SPLINE
  5
402
100
AcDbEntity
  8
0
 62
7
100
AcDbSpline
 70
8
 71
3
 72
8
 73
4
 74
0
 40
0
 40
0
 40
0
 40
0
 40
1
 40
1
 40
1
 40
1
 10
33.828578
 20
104.230908
 30
0.0
 10
33.042860
 20
103.503472
 30
0.0
 10
32.400778
 20
102.838930
 30
0.0
 10
32.401728
 20
102.754150
 30
0.0
  0
SPLINE
  5
403
100
AcDbEntity
  8
0
 62
7
100
AcDbSpline
 70
8
 71
3
 72
8
 73
4
 74
0
 40
0
 40
0
 40
0
 40
0
 40
1
 40
1
 40
1
 40
1
 10
32.401728
 20
102.754150
 30
0.0
 10
32.403153
 20
102.616016
 30
0.0
 10
34.314842
 20
101.293114
 30
0.0
 10
34.526350
 20
101.283802
 30
0.0
  0
SPLINE
  5
404
100
AcDbEntity
  8
0
 62
7
100
AcDbSpline
 70
8
 71
3
 72
8
 73
4
 74
0
 40
0
 40
0
 40
0
 40
0
 40
1
 40
1
 40
1
 40
1
 10
34.526350
 20
101.283802
 30
0.0
 10
34.573840
 20
101.281627
 30
0.0
 10
35.185188
 20
101.803222
 30
0.0
 10
35.884894
 20
102.442714
 30
0.0
  0
LWPOLYLINE
  5
405
100
AcDbEntity
  8
0
 62
7
100
AcDbPolyline
 90
3
 70
0
 10
113.792715
 20
91.920000
 30
0.0
 10
114.486908
 20
91.920000
 30
0.0
 10
113.730075
 20
93.419282
 30
0.0
  0
SPLINE
  5
406
100
AcDbEntity
  8
0
 62
7
100
AcDbSpline
 70
8
 71
3
 72
8
 73
4
 74
0
 40
0
 40
0
 40
0
 40
0
 40
1
 40
1
 40
1
 40
1
 10
71.630916
 20
102.224174
 30
0.0
 10
74.983630
 20
105.490712
 30
0.0
 10
80.149343
 20
105.557794
 30
0.0
 10
83.865420
 20
102.383054
 30
0.0
  0
LWPOLYLINE
  5
407
100
AcDbEntity
  8
0
 62
7
100
AcDbPolyline
 90
1
 70
1
 10
35.884894
 20
102.442714
 30
0.0
  0
SPLINE
  5
408
100
AcDbEntity
  8
0
 62
7
100
AcDbSpline
 70
8
 71
3
 72
8
 73
4
 74
0
 40
0
 40
0
 40
0
 40
0
 40
1
 40
1
 40
1
 40
1
 10
86.107410
 20
101.930744
 30
0.0
 10
86.664330
 20
102.259642
 30
0.0
 10
87.120000
 20
102.616116
 30
0.0
 10
87.120000
 20
102.722911
 30
0.0
  0
SPLINE
  5
409
100
AcDbEntity
  8
0
 62
7
100
AcDbSpline
 70
8
 71
3
 72
8
 73
4
 74
0
 40
0
 40
0
 40
0
 40
0
 40
1
 40
1
 40
1
 40
1
 10
87.120000
 20
102.722911
 30
0.0
 10
87.120000
 20
102.829706
 30
0.0
 10
86.566928
 20
103.458660
 30
0.0
 10
85.890953
 20
104.120587
 30
0.0
  0
SPLINE
  5
40a
100
AcDbEntity
  8
0
 62
7
100
AcDbSpline
 70
8
 71
3
 72
8
 73
4
 74
0
 40
0
 40
0
 40
0
 40
0
 40
1
 40
1
 40
1
 40
1
 10
85.890953
 20
104.120587
 30
0.0
 10
81.258713
 20
108.656543
 30
0.0
 10
73.709774
 20
108.491150
 30
0.0
 10
69.347016
 20
103.758116
 30
0.0
  0
LWPOLYLINE
  5
40b
100
AcDbEntity
  8
0
 62
7
100
AcDbPolyline
 90
3
 70
0
 10
83.865420
 20
102.383054
 30
0.0
 10
85.094820
 20
101.332745
 30
0.0
 10
86.107410
 20
101.930744
 30
0.0
  0
SPLINE
  5
40c
100
AcDbEntity
  8
0
 62
7
100
AcDbSpline
 70
8
 71
3
 72
8
 73
4
 74
0
 40
0
 40
0
 40
0
 40
0
 40
1
 40
1
 40
1
 40
1
 10
69.388644
 20
101.986752
 30
0.0
 10
69.966890
 20
101.614984
 30
0.0
 10
70.489913
 20
101.303878
 30
0.0
 10
70.550916
 20
101.295406
 30
0.0
  0
SPLINE
  5
40d
100
AcDbEntity
  8
0
 62
7
100
AcDbSpline
 70
8
 71
3
 72
8
 73
4
 74
0
 40
0
 40
0
 40
0
 40
0
 40
1
 40
1
 40
1
 40
1
 10
70.550916
 20
101.295406
 30
0.0
 10
70.611921
 20
101.286931
 30
0.0
 10
71.097920
 20
101.704880
 30
0.0
 10
71.630916
 20
102.224174
 30
0.0
  0
LWPOLYLINE
  5
40e
100
AcDbEntity
  8
0
 62
7
100
AcDbPolyline
 90
3
 70
0
 10
69.347016
 20
103.758116
 30
0.0
 10
68.337288
 20
102.662690
 30
0.0
 10
69.388644
 20
101.986752
 30
0.0
  0
LWPOLYLINE
  5
40f
100
AcDbEntity
  8
0
 62
7
100
AcDbPolyline
 90
1
 70
1
 10
71.630916
 20
102.224174
 30
0.0
  0
SPLINE
  5
410
100
AcDbEntity
  8
0
 62
7
100
AcDbSpline
 70
8
 71
3
 72
8
 73
4
 74
0
 40
0
 40
0
 40
0
 40
0
 40
1
 40
1
 40
1
 40
1
 10
107.006902
 20
103.419775
 30
0.0
 10
106.563105
 20
103.954140
 30
0.0
 10
106.140187
 20
104.393294
 30
0.0
 10
106.067078
 20
104.395672
 30
0.0
  0
SPLINE
  5
411
100
AcDbEntity
  8
0
 62
7
100
AcDbSpline
 70
8
 71
3
 72
8
 73
4
 74
0
 40
0
 40
0
 40
0
 40
0
 40
1
 40
1
 40
1
 40
1
 10
106.067078
 20
104.395672
 30
0.0
 10
105.993953
 20
104.398072
 30
0.0
 10
105.561975
 20
104.015026
 30
0.0
 10
105.107078
 20
103.544498
 30
0.0
  0
SPLINE
  5
412
100
AcDbEntity
  8
0
 62
7
100
AcDbSpline
 70
8
 71
3
 72
8
 73
4
 74
0
 40
0
 40
0
 40
0
 40
0
 40
1
 40
1
 40
1
 40
1
 10
105.107078
 20
103.544498
 30
0.0
 10
104.423175
 20
102.837096
 30
0.0
 10
104.342318
 20
102.651792
 30
0.0
 10
104.640000
 20
102.474072
 30
0.0
  0
SPLINE
  5
413
100
AcDbEntity
  8
0
 62
7
100
AcDbSpline
 70
8
 71
3
 72
8
 73
4
 74
0
 40
0
 40
0
 40
0
 40
0
 40
1
 40
1
 40
1
 40
1
 10
104.640000
 20
102.474072
 30
0.0
 10
104.838000
 20
102.355864
 30
0.0
 10
105.324000
 20
102.046732
 30
0.0
 10
105.720000
 20
101.787118
 30
0.0
  0
SPLINE
  5
414
100
AcDbEntity
  8
0
 62
7
100
AcDbSpline
 70
8
 71
3
 72
8
 73
4
 74
0
 40
0
 40
0
 40
0
 40
0
 40
1
 40
1
 40
1
 40
1
 10
105.720000
 20
101.787118
 30
0.0
 10
106.646543
 20
101.179680
 30
0.0
 10
106.620878
 20
101.178400
 30
0.0
 10
107.265068
 20
101.864102
 30
0.0
  0
LWPOLYLINE
  5
415
100
AcDbEntity
  8
0
 62
7
100
AcDbPolyline
 90
3
 70
0
 10
107.265068
 20
101.864102
 30
0.0
 10
107.813798
 20
102.448202
 30
0.0
 10
107.006902
 20
103.419775
 30
0.0
  0
SPLINE
  5
416
100
AcDbEntity
  8
0
 62
7
100
AcDbSpline
 70
8
 71
3
 72
8
 73
4
 74
0
 40
0
 40
0
 40
0
 40
0
 40
1
 40
1
 40
1
 40
1
 10
32.118096
 20
105.072040
 30
0.0
 10
34.779110
 20
107.783114
 30
0.0
 10
38.114621
 20
109.200000
 30
0.0
 10
41.835780
 20
109.200000
 30
0.0
  0
SPLINE
  5
417
100
AcDbEntity
  8
0
 62
7
100
AcDbSpline
 70
8
 71
3
 72
8
 73
4
 74
0
 40
0
 40
0
 40
0
 40
0
 40
1
 40
1
 40
1
 40
1
 10
41.835780
 20
109.200000
 30
0.0
 10
45.571942
 20
109.200000
 30
0.0
 10
48.482364
 20
107.976079
 30
0.0
 10
51.328204
 20
105.208152
 30
0.0
  0
LWPOLYLINE
  5
418
100
AcDbEntity
  8
0
 62
7
100
AcDbPolyline
 90
1
 70
1
 10
107.265068
 20
101.864102
 30
0.0
  0
SPLINE
  5
419
100
AcDbEntity
  8
0
 62
7
100
AcDbSpline
 70
8
 71
3
 72
8
 73
4
 74
0
 40
0
 40
0
 40
0
 40
0
 40
1
 40
1
 40
1
 40
1
 10
54.208205
 20
103.858944
 30
0.0
 10
54.819692
 20
104.062766
 30
0.0
 10
55.363044
 20
104.265929
 30
0.0
 10
55.415652
 20
104.310418
 30
0.0
  0
SPLINE
  5
41a
100
AcDbEntity
  8
0
 62
7
100
AcDbSpline
 70
8
 71
3
 72
8
 73
4
 74
0
 40
0
 40
0
 40
0
 40
0
 40
1
 40
1
 40
1
 40
1
 10
55.415652
 20
104.310418
 30
0.0
 10
55.632550
 20
104.493836
 30
0.0
 10
54.040838
 20
106.459970
 30
0.0
 10
52.625628
 20
107.756755
 30
0.0
  0
SPLINE
  5
41b
100
AcDbEntity
  8
0
 62
7
100
AcDbSpline
 70
8
 71
3
 72
8
 73
4
 74
0
 40
0
 40
0
 40
0
 40
0
 40
1
 40
1
 40
1
 40
1
 10
52.625628
 20
107.756755
 30
0.0
 10
50.795980
 20
109.433294
 30
0.0
 10
48.510034
 20
110.675701
 30
0.0
 10
45.975658
 20
111.370997
 30
0.0
  0
SPLINE
  5
41c
100
AcDbEntity
  8
0
 62
7
100
AcDbSpline
 70
8
 71
3
 72
8
 73
4
 74
0
 40
0
 40
0
 40
0
 40
0
 40
1
 40
1
 40
1
 40
1
 10
45.975658
 20
111.370997
 30
0.0
 10
43.432414
 20
112.068725
 30
0.0
 10
39.073822
 20
111.963767
 30
0.0
 10
36.720000
 20
111.148115
 30
0.0
  0
SPLINE
  5
41d
100
AcDbEntity
  8
0
 62
7
100
AcDbSpline
 70
8
 71
3
 72
8
 73
4
 74
0
 40
0
 40
0
 40
0
 40
0
 40
1
 40
1
 40
1
 40
1
 10
36.720000
 20
111.148115
 30
0.0
 10
34.774238
 20
110.473863
 30
0.0
 10
32.387333
 20
109.061087
 30
0.0
 10
30.913774
 20
107.711486
 30
0.0
  0
SPLINE
  5
41e
100
AcDbEntity
  8
0
 62
7
100
AcDbSpline
 70
8
 71
3
 72
8
 73
4
 74
0
 40
0
 40
0
 40
0
 40
0
 40
1
 40
1
 40
1
 40
1
 10
30.913774
 20
107.711486
 30
0.0
 10
29.841101
 20
106.729049
 30
0.0
 10
27.961694
 20
104.423926
 30
0.0
 10
28.123584
 20
104.289274
 30
0.0
  0
SPLINE
  5
41f
100
AcDbEntity
  8
0
 62
7
100
AcDbSpline
 70
8
 71
3
 72
8
 73
4
 74
0
 40
0
 40
0
 40
0
 40
0
 40
1
 40
1
 40
1
 40
1
 10
28.123584
 20
104.289274
 30
0.0
 10
28.186749
 20
104.236736
 30
0.0
 10
30.180821
 20
103.521367
 30
0.0
 10
30.438096
 20
103.458948
 30
0.0
  0
SPLINE
  5
420
100
AcDbEntity
  8
0
 62
7
100
AcDbSpline
 70
8
 71
3
 72
8
 73
4
 74
0
 40
0
 40
0
 40
0
 40
0
 40
1
 40
1
 40
1
 40
1
 10
30.438096
 20
103.458948
 30
0.0
 10
30.481049
 20
103.448531
 30
0.0
 10
31.237046
 20
104.174417
 30
0.0
 10
32.118096
 20
105.072040
 30
0.0
  0
LWPOLYLINE
  5
421
100
AcDbEntity
  8
0
 62
7
100
AcDbPolyline
 90
3
 70
0
 10
51.328204
 20
105.208152
 30
0.0
 10
53.096410
 20
103.488355
 30
0.0
 10
54.208205
 20
103.858944
 30
0.0
  0
SPLINE
  5
422
100
AcDbEntity
  8
0
 62
7
100
AcDbSpline
 70
8
 71
3
 72
8
 73
4
 74
0
 40
0
 40
0
 40
0
 40
0
 40
1
 40
1
 40
1
 40
1
 10
68.208386
 20
105.184589
 30
0.0
 10
70.988608
 20
107.953660
 30
0.0
 10
74.022794
 20
109.203207
 30
0.0
 10
77.951813
 20
109.197152
 30
0.0
  0
SPLINE
  5
423
100
AcDbEntity
  8
0
 62
7
100
AcDbSpline
 70
8
 71
3
 72
8
 73
4
 74
0
 40
0
 40
0
 40
0
 40
0
 40
1
 40
1
 40
1
 40
1
 10
77.951813
 20
109.197152
 30
0.0
 10
81.580695
 20
109.191527
 30
0.0
 10
84.614565
 20
107.901338
 30
0.0
 10
87.309345
 20
105.217648
 30
0.0
  0
LWPOLYLINE
  5
424
100
AcDbEntity
  8
0
 62
7
100
AcDbPolyline
 90
1
 70
1
 10
32.118096
 20
105.072040
 30
0.0
  0
SPLINE
  5
425
100
AcDbEntity
  8
0
 62
7
100
AcDbSpline
 70
8
 71
3
 72
8
 73
4
 74
0
 40
0
 40
0
 40
0
 40
0
 40
1
 40
1
 40
1
 40
1
 10
90.189345
 20
103.852517
 30
0.0
 10
90.811207
 20
104.059874
 30
0.0
 10
91.361632
 20
104.264516
 30
0.0
 10
91.412512
 20
104.307276
 30
0.0
  0
SPLINE
  5
426
100
AcDbEntity
  8
0
 62
7
100
AcDbSpline
 70
8
 71
3
 72
8
 73
4
 74
0
 40
0
 40
0
 40
0
 40
0
 40
1
 40
1
 40
1
 40
1
 10
91.412512
 20
104.307276
 30
0.0
 10
91.562115
 20
104.433002
 30
0.0
 10
90.732870
 20
105.596552
 30
0.0
 10
89.668717
 20
106.754054
 30
0.0
  0
SPLINE
  5
427
100
AcDbEntity
  8
0
 62
7
100
AcDbSpline
 70
8
 71
3
 72
8
 73
4
 74
0
 40
0
 40
0
 40
0
 40
0
 40
1
 40
1
 40
1
 40
1
 10
89.668717
 20
106.754054
 30
0.0
 10
87.607523
 20
108.996062
 30
0.0
 10
84.895328
 20
110.609270
 30
0.0
 10
81.898597
 20
111.375704
 30
0.0
  0
SPLINE
  5
428
100
AcDbEntity
  8
0
 62
7
100
AcDbSpline
 70
8
 71
3
 72
8
 73
4
 74
0
 40
0
 40
0
 40
0
 40
0
 40
1
 40
1
 40
1
 40
1
 10
81.898597
 20
111.375704
 30
0.0
 10
79.629127
 20
111.956137
 30
0.0
 10
75.910650
 20
111.995829
 30
0.0
 10
73.849096
 20
111.461627
 30
0.0
  0
SPLINE
  5
429
100
AcDbEntity
  8
0
 62
7
100
AcDbSpline
 70
8
 71
3
 72
8
 73
4
 74
0
 40
0
 40
0
 40
0
 40
0
 40
1
 40
1
 40
1
 40
1
 10
73.849096
 20
111.461627
 30
0.0
 10
70.437180
 20
110.577511
 30
0.0
 10
67.078728
 20
108.350265
 30
0.0
 10
65.021671
 20
105.607488
 30
0.0
  0
LWPOLYLINE
  5
42a
100
AcDbEntity
  8
0
 62
7
100
AcDbPolyline
 90
3
 70
0
 10
87.309345
 20
105.217648
 30
0.0
 10
89.058690
 20
103.475504
 30
0.0
 10
90.189345
 20
103.852517
 30
0.0
  0
SPLINE
  5
42b
100
AcDbEntity
  8
0
 62
7
100
AcDbSpline
 70
8
 71
3
 72
8
 73
4
 74
0
 40
0
 40
0
 40
0
 40
0
 40
1
 40
1
 40
1
 40
1
 10
65.198650
 20
103.897462
 30
0.0
 10
65.837393
 20
103.678832
 30
0.0
 10
66.381776
 20
103.486462
 30
0.0
 10
66.408386
 20
103.469974
 30
0.0
  0
SPLINE
  5
42c
100
AcDbEntity
  8
0
 62
7
100
AcDbSpline
 70
8
 71
3
 72
8
 73
4
 74
0
 40
0
 40
0
 40
0
 40
0
 40
1
 40
1
 40
1
 40
1
 10
66.408386
 20
103.469974
 30
0.0
 10
66.434996
 20
103.453489
 30
0.0
 10
67.245000
 20
104.225064
 30
0.0
 10
68.208386
 20
105.184589
 30
0.0
  0
LWPOLYLINE
  5
42d
100
AcDbEntity
  8
0
 62
7
100
AcDbPolyline
 90
3
 70
0
 10
65.021671
 20
105.607488
 30
0.0
 10
64.037300
 20
104.294976
 30
0.0
 10
65.198650
 20
103.897462
 30
0.0
  0
LWPOLYLINE
  5
42e
100
AcDbEntity
  8
0
 62
7
100
AcDbPolyline
 90
1
 70
1
 10
68.208386
 20
105.184589
 30
0.0
  0
SPLINE
  5
42f
100
AcDbEntity
  8
0
 62
7
100
AcDbSpline
 70
8
 71
3
 72
8
 73
4
 74
0
 40
0
 40
0
 40
0
 40
0
 40
1
 40
1
 40
1
 40
1
 10
101.428417
 20
106.181357
 30
0.0
 10
100.686787
 20
105.282242
 30
0.0
 10
100.080000
 20
104.478660
 30
0.0
 10
100.080000
 20
104.395616
 30
0.0
  0
SPLINE
  5
430
100
AcDbEntity
  8
0
 62
7
100
AcDbSpline
 70
8
 71
3
 72
8
 73
4
 74
0
 40
0
 40
0
 40
0
 40
0
 40
1
 40
1
 40
1
 40
1
 10
100.080000
 20
104.395616
 30
0.0
 10
100.080000
 20
104.277833
 30
0.0
 10
101.662560
 20
103.675880
 30
0.0
 10
102.502432
 20
103.474202
 30
0.0
  0
SPLINE
  5
431
100
AcDbEntity
  8
0
 62
7
100
AcDbSpline
 70
8
 71
3
 72
8
 73
4
 74
0
 40
0
 40
0
 40
0
 40
0
 40
1
 40
1
 40
1
 40
1
 10
102.502432
 20
103.474202
 30
0.0
 10
102.580770
 20
103.455385
 30
0.0
 10
103.108882
 20
103.990298
 30
0.0
 10
103.676018
 20
104.662886
 30
0.0
  0
LWPOLYLINE
  5
432
100
AcDbEntity
  8
0
 62
7
100
AcDbPolyline
 90
5
 70
0
 10
103.676018
 20
104.662886
 30
0.0
 10
104.707170
 20
105.885773
 30
0.0
 10
103.742002
 20
106.850940
 30
0.0
 10
102.776835
 20
107.816105
 30
0.0
 10
101.428417
 20
106.181357
 30
0.0
  0
SPLINE
  5
433
100
AcDbEntity
  8
0
 62
7
100
AcDbSpline
 70
8
 71
3
 72
8
 73
4
 74
0
 40
0
 40
0
 40
0
 40
0
 40
1
 40
1
 40
1
 40
1
 10
62.787972
 20
105.720000
 30
0.0
 10
63.136522
 20
106.248000
 30
0.0
 10
64.182581
 20
107.457430
 30
0.0
 10
65.112548
 20
108.407622
 30
0.0
  0
LWPOLYLINE
  5
434
100
AcDbEntity
  8
0
 62
7
100
AcDbPolyline
 90
1
 70
1
 10
103.676018
 20
104.662886
 30
0.0
  0
SPLINE
  5
435
100
AcDbEntity
  8
0
 62
7
100
AcDbSpline
 70
8
 71
3
 72
8
 73
4
 74
0
 40
0
 40
0
 40
0
 40
0
 40
1
 40
1
 40
1
 40
1
 10
66.499730
 20
111.148790
 30
0.0
 10
66.297176
 20
111.824853
 30
0.0
 10
65.737394
 20
112.621005
 30
0.0
 10
64.818566
 20
113.539833
 30
0.0
  0
SPLINE
  5
436
100
AcDbEntity
  8
0
 62
7
100
AcDbSpline
 70
8
 71
3
 72
8
 73
4
 74
0
 40
0
 40
0
 40
0
 40
0
 40
1
 40
1
 40
1
 40
1
 10
64.818566
 20
113.539833
 30
0.0
 10
63.258828
 20
115.099571
 30
0.0
 10
61.821780
 20
115.681318
 30
0.0
 10
59.536440
 20
115.678145
 30
0.0
  0
SPLINE
  5
437
100
AcDbEntity
  8
0
 62
7
100
AcDbSpline
 70
8
 71
3
 72
8
 73
4
 74
0
 40
0
 40
0
 40
0
 40
0
 40
1
 40
1
 40
1
 40
1
 10
59.536440
 20
115.678145
 30
0.0
 10
56.889840
 20
115.674470
 30
0.0
 10
53.861426
 20
113.466339
 30
0.0
 10
53.016852
 20
110.924470
 30
0.0
  0
SPLINE
  5
438
100
AcDbEntity
  8
0
 62
7
100
AcDbSpline
 70
8
 71
3
 72
8
 73
4
 74
0
 40
0
 40
0
 40
0
 40
0
 40
1
 40
1
 40
1
 40
1
 10
53.016852
 20
110.924470
 30
0.0
 10
52.757884
 20
110.145072
 30
0.0
 10
52.780990
 20
110.102943
 30
0.0
 10
54.156262
 20
108.846934
 30
0.0
  0
SPLINE
  5
439
100
AcDbEntity
  8
0
 62
7
100
AcDbSpline
 70
8
 71
3
 72
8
 73
4
 74
0
 40
0
 40
0
 40
0
 40
0
 40
1
 40
1
 40
1
 40
1
 10
54.156262
 20
108.846934
 30
0.0
 10
54.928318
 20
108.141830
 30
0.0
 10
55.990771
 20
106.921052
 30
0.0
 10
56.517271
 20
106.134091
 30
0.0
  0
LWPOLYLINE
  5
43a
100
AcDbEntity
  8
0
 62
7
100
AcDbPolyline
 90
3
 70
0
 10
65.112548
 20
108.407622
 30
0.0
 10
66.803396
 20
110.135243
 30
0.0
 10
66.499730
 20
111.148790
 30
0.0
  0
SPLINE
  5
43b
100
AcDbEntity
  8
0
 62
7
100
AcDbSpline
 70
8
 71
3
 72
8
 73
4
 74
0
 40
0
 40
0
 40
0
 40
0
 40
1
 40
1
 40
1
 40
1
 10
98.783235
 20
105.678157
 30
0.0
 10
99.138848
 20
106.215523
 30
0.0
 10
99.912015
 20
107.170713
 30
0.0
 10
100.501388
 20
107.800799
 30
0.0
  0
LWPOLYLINE
  5
43c
100
AcDbEntity
  8
0
 62
7
100
AcDbPolyline
 90
5
 70
0
 10
56.517271
 20
106.134091
 30
0.0
 10
57.474542
 20
104.703254
 30
0.0
 10
59.814394
 20
104.731627
 30
0.0
 10
62.154248
 20
104.760000
 30
0.0
 10
62.787972
 20
105.720000
 30
0.0
  0
SPLINE
  5
43d
100
AcDbEntity
  8
0
 62
7
100
AcDbSpline
 70
8
 71
3
 72
8
 73
4
 74
0
 40
0
 40
0
 40
0
 40
0
 40
1
 40
1
 40
1
 40
1
 10
100.788615
 20
109.613203
 30
0.0
 10
99.467618
 20
110.736197
 30
0.0
 10
95.817615
 20
113.383663
 30
0.0
 10
94.435598
 20
114.221249
 30
0.0
  0
SPLINE
  5
43e
100
AcDbEntity
  8
0
 62
7
100
AcDbSpline
 70
8
 71
3
 72
8
 73
4
 74
0
 40
0
 40
0
 40
0
 40
0
 40
1
 40
1
 40
1
 40
1
 10
94.435598
 20
114.221249
 30
0.0
 10
93.458775
 20
114.813268
 30
0.0
 10
92.969370
 20
114.974227
 30
0.0
 10
92.502458
 20
114.857040
 30
0.0
  0
SPLINE
  5
43f
100
AcDbEntity
  8
0
 62
7
100
AcDbSpline
 70
8
 71
3
 72
8
 73
4
 74
0
 40
0
 40
0
 40
0
 40
0
 40
1
 40
1
 40
1
 40
1
 10
92.502458
 20
114.857040
 30
0.0
 10
91.584825
 20
114.626728
 30
0.0
 10
89.661488
 20
112.586529
 30
0.0
 10
89.184450
 20
111.337422
 30
0.0
  0
LWPOLYLINE
  5
440
100
AcDbEntity
  8
0
 62
7
100
AcDbPolyline
 90
3
 70
0
 10
100.501388
 20
107.800799
 30
0.0
 10
101.572973
 20
108.946410
 30
0.0
 10
100.788615
 20
109.613203
 30
0.0
  0
SPLINE
  5
441
100
AcDbEntity
  8
0
 62
7
100
AcDbSpline
 70
8
 71
3
 72
8
 73
4
 74
0
 40
0
 40
0
 40
0
 40
0
 40
1
 40
1
 40
1
 40
1
 10
90.406358
 20
108.586818
 30
0.0
 10
91.306058
 20
107.670067
 30
0.0
 10
92.361315
 20
106.414771
 30
0.0
 10
92.751383
 20
105.797269
 30
0.0
  0
LWPOLYLINE
  5
442
100
AcDbEntity
  8
0
 62
7
100
AcDbPolyline
 90
3
 70
0
 10
89.184450
 20
111.337422
 30
0.0
 10
88.770548
 20
110.253638
 30
0.0
 10
90.406358
 20
108.586818
 30
0.0
  0
SPLINE
  5
443
100
AcDbEntity
  8
0
 62
7
100
AcDbSpline
 70
8
 71
3
 72
8
 73
4
 74
0
 40
0
 40
0
 40
0
 40
0
 40
1
 40
1
 40
1
 40
1
 10
70.767472
 20
112.470185
 30
0.0
 10
70.815585
 20
112.505803
 30
0.0
 10
70.620802
 20
113.018625
 30
0.0
 10
70.334626
 20
113.609787
 30
0.0
  0
SPLINE
  5
444
100
AcDbEntity
  8
0
 62
7
100
AcDbSpline
 70
8
 71
3
 72
8
 73
4
 74
0
 40
0
 40
0
 40
0
 40
0
 40
1
 40
1
 40
1
 40
1
 10
70.334626
 20
113.609787
 30
0.0
 10
68.511900
 20
117.375037
 30
0.0
 10
64.827926
 20
119.828932
 30
0.0
 10
60.499858
 20
120.160730
 30
0.0
  0
SPLINE
  5
445
100
AcDbEntity
  8
0
 62
7
100
AcDbSpline
 70
8
 71
3
 72
8
 73
4
 74
0
 40
0
 40
0
 40
0
 40
0
 40
1
 40
1
 40
1
 40
1
 10
60.499858
 20
120.160730
 30
0.0
 10
57.092050
 20
120.421977
 30
0.0
 10
53.820506
 20
119.112092
 30
0.0
 10
51.389074
 20
116.512882
 30
0.0
  0
SPLINE
  5
446
100
AcDbEntity
  8
0
 62
7
100
AcDbSpline
 70
8
 71
3
 72
8
 73
4
 74
0
 40
0
 40
0
 40
0
 40
0
 40
1
 40
1
 40
1
 40
1
 10
51.389074
 20
116.512882
 30
0.0
 10
50.621316
 20
115.692148
 30
0.0
 10
49.705262
 20
114.442919
 30
0.0
 10
49.353398
 20
113.736818
 30
0.0
  0
LWPOLYLINE
  5
447
100
AcDbEntity
  8
0
 62
7
100
AcDbPolyline
 90
6
 70
0
 10
92.751383
 20
105.797269
 30
0.0
 10
93.460590
 20
104.674543
 30
0.0
 10
95.798625
 20
104.687840
 30
0.0
 10
98.136668
 20
104.701138
 30
0.0
 10
98.783235
 20
105.678168
 30
0.0
 10
98.783235
 20
105.678157
 30
0.0
  0
SPLINE
  5
448
100
AcDbEntity
  8
0
 62
7
100
AcDbSpline
 70
8
 71
3
 72
8
 73
4
 74
0
 40
0
 40
0
 40
0
 40
0
 40
1
 40
1
 40
1
 40
1
 10
49.736822
 20
111.917344
 30
0.0
 10
50.299570
 20
111.622735
 30
0.0
 10
50.869502
 20
111.376810
 30
0.0
 10
51.003340
 20
111.370845
 30
0.0
  0
SPLINE
  5
449
100
AcDbEntity
  8
0
 62
7
100
AcDbSpline
 70
8
 71
3
 72
8
 73
4
 74
0
 40
0
 40
0
 40
0
 40
0
 40
1
 40
1
 40
1
 40
1
 10
51.003340
 20
111.370845
 30
0.0
 10
51.137179
 20
111.364845
 30
0.0
 10
51.515179
 20
111.926605
 30
0.0
 10
51.843340
 20
112.619123
 30
0.0
  0
SPLINE
  5
44a
100
AcDbEntity
  8
0
 62
7
100
AcDbSpline
 70
8
 71
3
 72
8
 73
4
 74
0
 40
0
 40
0
 40
0
 40
0
 40
1
 40
1
 40
1
 40
1
 10
51.843340
 20
112.619123
 30
0.0
 10
53.426528
 20
115.960101
 30
0.0
 10
57.698695
 20
118.128433
 30
0.0
 10
61.280734
 20
117.409058
 30
0.0
  0
SPLINE
  5
44b
100
AcDbEntity
  8
0
 62
7
100
AcDbSpline
 70
8
 71
3
 72
8
 73
4
 74
0
 40
0
 40
0
 40
0
 40
0
 40
1
 40
1
 40
1
 40
1
 10
61.280734
 20
117.409058
 30
0.0
 10
64.180980
 20
116.826605
 30
0.0
 10
66.808464
 20
114.844670
 30
0.0
 10
67.934556
 20
112.390024
 30
0.0
  0
LWPOLYLINE
  5
44c
100
AcDbEntity
  8
0
 62
7
100
AcDbPolyline
 90
3
 70
0
 10
49.353398
 20
113.736818
 30
0.0
 10
48.713642
 20
112.452998
 30
0.0
 10
49.736822
 20
111.917344
 30
0.0
  0
SPLINE
  5
44d
100
AcDbEntity
  8
0
 62
7
100
AcDbSpline
 70
8
 71
3
 72
8
 73
4
 74
0
 40
0
 40
0
 40
0
 40
0
 40
1
 40
1
 40
1
 40
1
 10
69.589838
 20
111.781802
 30
0.0
 10
70.189428
 20
112.124794
 30
0.0
 10
70.719362
 20
112.434566
 30
0.0
 10
70.767472
 20
112.470185
 30
0.0
  0
LWPOLYLINE
  5
44e
100
AcDbEntity
  8
0
 62
7
100
AcDbPolyline
 90
3
 70
0
 10
67.934556
 20
112.390024
 30
0.0
 10
68.499677
 20
111.158180
 30
0.0
 10
69.589838
 20
111.781802
 30
0.0
  0
SPLINE
  5
44f
100
AcDbEntity
  8
0
 62
7
100
AcDbSpline
 70
8
 71
3
 72
8
 73
4
 74
0
 40
0
 40
0
 40
0
 40
0
 40
1
 40
1
 40
1
 40
1
 10
87.826830
 20
112.628271
 30
0.0
 10
88.149585
 20
113.314999
 30
0.0
 10
88.932585
 20
114.374408
 30
0.0
 10
89.566830
 20
114.982515
 30
0.0
  0
SPLINE
  5
450
100
AcDbEntity
  8
0
 62
7
100
AcDbSpline
 70
8
 71
3
 72
8
 73
4
 74
0
 40
0
 40
0
 40
0
 40
0
 40
1
 40
1
 40
1
 40
1
 10
89.566830
 20
114.982515
 30
0.0
 10
90.201075
 20
115.590621
 30
0.0
 10
90.720000
 20
116.139865
 30
0.0
 10
90.720000
 20
116.203057
 30
0.0
  0
SPLINE
  5
451
100
AcDbEntity
  8
0
 62
7
100
AcDbSpline
 70
8
 71
3
 72
8
 73
4
 74
0
 40
0
 40
0
 40
0
 40
0
 40
1
 40
1
 40
1
 40
1
 10
90.720000
 20
116.203057
 30
0.0
 10
90.720000
 20
116.266252
 30
0.0
 10
90.178777
 20
116.571446
 30
0.0
 10
89.517285
 20
116.881273
 30
0.0
  0
LWPOLYLINE
  5
452
100
AcDbEntity
  8
0
 62
7
100
AcDbPolyline
 90
1
 70
1
 10
70.767472
 20
112.470185
 30
0.0
  0
SPLINE
  5
453
100
AcDbEntity
  8
0
 62
7
100
AcDbSpline
 70
8
 71
3
 72
8
 73
4
 74
0
 40
0
 40
0
 40
0
 40
0
 40
1
 40
1
 40
1
 40
1
 10
87.564690
 20
116.742298
 30
0.0
 10
86.601547
 20
115.840263
 30
0.0
 10
84.960000
 20
113.335881
 30
0.0
 10
84.960000
 20
112.768525
 30
0.0
  0
SPLINE
  5
454
100
AcDbEntity
  8
0
 62
7
100
AcDbSpline
 70
8
 71
3
 72
8
 73
4
 74
0
 40
0
 40
0
 40
0
 40
0
 40
1
 40
1
 40
1
 40
1
 10
84.960000
 20
112.768525
 30
0.0
 10
84.960000
 20
112.365057
 30
0.0
 10
86.404230
 20
111.382355
 30
0.0
 10
87.000000
 20
111.380445
 30
0.0
  0
SPLINE
  5
455
100
AcDbEntity
  8
0
 62
7
100
AcDbSpline
 70
8
 71
3
 72
8
 73
4
 74
0
 40
0
 40
0
 40
0
 40
0
 40
1
 40
1
 40
1
 40
1
 10
87.000000
 20
111.380445
 30
0.0
 10
87.132000
 20
111.380013
 30
0.0
 10
87.504075
 20
111.941543
 30
0.0
 10
87.826830
 20
112.628271
 30
0.0
  0
LWPOLYLINE
  5
456
100
AcDbEntity
  8
0
 62
7
100
AcDbPolyline
 90
3
 70
0
 10
89.517285
 20
116.881273
 30
0.0
 10
88.314562
 20
117.444596
 30
0.0
 10
87.564690
 20
116.742298
 30
0.0
  0
SPLINE
  5
457
100
AcDbEntity
  8
0
 62
7
100
AcDbSpline
 70
8
 71
3
 72
8
 73
4
 74
0
 40
0
 40
0
 40
0
 40
0
 40
1
 40
1
 40
1
 40
1
 10
38.234392
 20
113.416613
 30
0.0
 10
38.900760
 20
113.534822
 30
0.0
 10
39.112330
 20
113.673814
 30
0.0
 10
39.014392
 20
113.929039
 30
0.0
  0
SPLINE
  5
458
100
AcDbEntity
  8
0
 62
7
100
AcDbSpline
 70
8
 71
3
 72
8
 73
4
 74
0
 40
0
 40
0
 40
0
 40
0
 40
1
 40
1
 40
1
 40
1
 10
39.014392
 20
113.929039
 30
0.0
 10
38.940475
 20
114.121659
 30
0.0
 10
38.880000
 20
114.378425
 30
0.0
 10
38.880000
 20
114.499629
 30
0.0
  0
SPLINE
  5
459
100
AcDbEntity
  8
0
 62
7
100
AcDbSpline
 70
8
 71
3
 72
8
 73
4
 74
0
 40
0
 40
0
 40
0
 40
0
 40
1
 40
1
 40
1
 40
1
 10
38.880000
 20
114.499629
 30
0.0
 10
38.880000
 20
114.867305
 30
0.0
 10
38.438638
 20
114.750412
 30
0.0
 10
37.435232
 20
114.116990
 30
0.0
  0
SPLINE
  5
45a
100
AcDbEntity
  8
0
 62
7
100
AcDbSpline
 70
8
 71
3
 72
8
 73
4
 74
0
 40
0
 40
0
 40
0
 40
0
 40
1
 40
1
 40
1
 40
1
 10
37.435232
 20
114.116990
 30
0.0
 10
36.462200
 20
113.502741
 30
0.0
 10
36.139072
 20
112.907505
 30
0.0
 10
36.900000
 20
113.131030
 30
0.0
  0
SPLINE
  5
45b
100
AcDbEntity
  8
0
 62
7
100
AcDbSpline
 70
8
 71
3
 72
8
 73
4
 74
0
 40
0
 40
0
 40
0
 40
0
 40
1
 40
1
 40
1
 40
1
 10
36.900000
 20
113.131030
 30
0.0
 10
37.131000
 20
113.198888
 30
0.0
 10
37.731476
 20
113.327400
 30
0.0
 10
38.234392
 20
113.416613
 30
0.0
  0
LWPOLYLINE
  5
45c
100
AcDbEntity
  8
0
 62
7
100
AcDbPolyline
 90
1
 70
1
 10
87.826830
 20
112.628271
 30
0.0
  0
SPLINE
  5
45d
100
AcDbEntity
  8
0
 62
7
100
AcDbSpline
 70
8
 71
3
 72
8
 73
4
 74
0
 40
0
 40
0
 40
0
 40
0
 40
1
 40
1
 40
1
 40
1
 10
47.796982
 20
114.660000
 30
0.0
 10
48.734976
 20
116.590673
 30
0.0
 10
51.100817
 20
119.090613
 30
0.0
 10
53.040000
 20
120.200200
 30
0.0
  0
SPLINE
  5
45e
100
AcDbEntity
  8
0
 62
7
100
AcDbSpline
 70
8
 71
3
 72
8
 73
4
 74
0
 40
0
 40
0
 40
0
 40
0
 40
1
 40
1
 40
1
 40
1
 10
53.040000
 20
120.200200
 30
0.0
 10
53.766000
 20
120.615613
 30
0.0
 10
54.267590
 20
120.956509
 30
0.0
 10
54.154642
 20
120.957748
 30
0.0
  0
SPLINE
  5
45f
100
AcDbEntity
  8
0
 62
7
100
AcDbSpline
 70
8
 71
3
 72
8
 73
4
 74
0
 40
0
 40
0
 40
0
 40
0
 40
1
 40
1
 40
1
 40
1
 10
54.154642
 20
120.957748
 30
0.0
 10
53.769487
 20
120.961948
 30
0.0
 10
51.003938
 20
120.218464
 30
0.0
 10
49.200000
 20
119.625711
 30
0.0
  0
SPLINE
  5
460
100
AcDbEntity
  8
0
 62
7
100
AcDbSpline
 70
8
 71
3
 72
8
 73
4
 74
0
 40
0
 40
0
 40
0
 40
0
 40
1
 40
1
 40
1
 40
1
 10
49.200000
 20
119.625711
 30
0.0
 10
47.540570
 20
119.080442
 30
0.0
 10
47.331010
 20
118.934852
 30
0.0
 10
46.516570
 20
117.761435
 30
0.0
  0
SPLINE
  5
461
100
AcDbEntity
  8
0
 62
7
100
AcDbSpline
 70
8
 71
3
 72
8
 73
4
 74
0
 40
0
 40
0
 40
0
 40
0
 40
1
 40
1
 40
1
 40
1
 10
46.516570
 20
117.761435
 30
0.0
 10
45.715435
 20
116.607188
 30
0.0
 10
44.302768
 20
113.771547
 30
0.0
 10
44.456892
 20
113.627050
 30
0.0
  0
SPLINE
  5
462
100
AcDbEntity
  8
0
 62
7
100
AcDbSpline
 70
8
 71
3
 72
8
 73
4
 74
0
 40
0
 40
0
 40
0
 40
0
 40
1
 40
1
 40
1
 40
1
 10
44.456892
 20
113.627050
 30
0.0
 10
44.511049
 20
113.576275
 30
0.0
 10
46.364916
 20
113.140497
 30
0.0
 10
46.844962
 20
113.065702
 30
0.0
  0
SPLINE
  5
463
100
AcDbEntity
  8
0
 62
7
100
AcDbSpline
 70
8
 71
3
 72
8
 73
4
 74
0
 40
0
 40
0
 40
0
 40
0
 40
1
 40
1
 40
1
 40
1
 10
46.844962
 20
113.065702
 30
0.0
 10
46.935688
 20
113.051564
 30
0.0
 10
47.364098
 20
113.769000
 30
0.0
 10
47.796982
 20
114.660000
 30
0.0
  0
LWPOLYLINE
  5
464
100
AcDbEntity
  8
0
 62
7
100
AcDbPolyline
 90
1
 70
1
 10
38.234392
 20
113.416613
 30
0.0
  0
SPLINE
  5
465
100
AcDbEntity
  8
0
 62
7
100
AcDbSpline
 70
8
 71
3
 72
8
 73
4
 74
0
 40
0
 40
0
 40
0
 40
0
 40
1
 40
1
 40
1
 40
1
 10
74.227262
 20
113.415276
 30
0.0
 10
75.300300
 20
113.605539
 30
0.0
 10
75.290887
 20
113.704432
 30
0.0
 10
73.955246
 20
116.272478
 30
0.0
  0
SPLINE
  5
466
100
AcDbEntity
  8
0
 62
7
100
AcDbSpline
 70
8
 71
3
 72
8
 73
4
 74
0
 40
0
 40
0
 40
0
 40
0
 40
1
 40
1
 40
1
 40
1
 10
73.955246
 20
116.272478
 30
0.0
 10
72.970008
 20
118.166803
 30
0.0
 10
70.720214
 20
120.708289
 30
0.0
 10
69.133013
 20
121.719930
 30
0.0
  0
SPLINE
  5
467
100
AcDbEntity
  8
0
 62
7
100
AcDbSpline
 70
8
 71
3
 72
8
 73
4
 74
0
 40
0
 40
0
 40
0
 40
0
 40
1
 40
1
 40
1
 40
1
 10
69.133013
 20
121.719930
 30
0.0
 10
68.160389
 20
122.339855
 30
0.0
 10
67.884458
 20
122.397226
 30
0.0
 10
66.013013
 20
122.368631
 30
0.0
  0
SPLINE
  5
468
100
AcDbEntity
  8
0
 62
7
100
AcDbSpline
 70
8
 71
3
 72
8
 73
4
 74
0
 40
0
 40
0
 40
0
 40
0
 40
1
 40
1
 40
1
 40
1
 10
66.013013
 20
122.368631
 30
0.0
 10
63.641381
 20
122.332391
 30
0.0
 10
59.943821
 20
122.016470
 30
0.0
 10
61.216440
 20
121.958806
 30
0.0
  0
SPLINE
  5
469
100
AcDbEntity
  8
0
 62
7
100
AcDbSpline
 70
8
 71
3
 72
8
 73
4
 74
0
 40
0
 40
0
 40
0
 40
0
 40
1
 40
1
 40
1
 40
1
 10
61.216440
 20
121.958806
 30
0.0
 10
63.149222
 20
121.871230
 30
0.0
 10
66.426052
 20
120.519802
 30
0.0
 10
68.280000
 20
119.045659
 30
0.0
  0
SPLINE
  5
46a
100
AcDbEntity
  8
0
 62
7
100
AcDbSpline
 70
8
 71
3
 72
8
 73
4
 74
0
 40
0
 40
0
 40
0
 40
0
 40
1
 40
1
 40
1
 40
1
 10
68.280000
 20
119.045659
 30
0.0
 10
69.649680
 20
117.956573
 30
0.0
 10
71.152202
 20
116.053879
 30
0.0
 10
71.921167
 20
114.434728
 30
0.0
  0
SPLINE
  5
46b
100
AcDbEntity
  8
0
 62
7
100
AcDbSpline
 70
8
 71
3
 72
8
 73
4
 74
0
 40
0
 40
0
 40
0
 40
0
 40
1
 40
1
 40
1
 40
1
 10
71.921167
 20
114.434728
 30
0.0
 10
72.383856
 20
113.460475
 30
0.0
 10
72.694294
 20
113.072677
 30
0.0
 10
72.951667
 20
113.147429
 30
0.0
  0
SPLINE
  5
46c
100
AcDbEntity
  8
0
 62
7
100
AcDbSpline
 70
8
 71
3
 72
8
 73
4
 74
0
 40
0
 40
0
 40
0
 40
0
 40
1
 40
1
 40
1
 40
1
 10
72.951667
 20
113.147429
 30
0.0
 10
73.154248
 20
113.206267
 30
0.0
 10
73.728268
 20
113.326798
 30
0.0
 10
74.227262
 20
113.415276
 30
0.0
  0
LWPOLYLINE
  5
46d
100
AcDbEntity
  8
0
 62
7
100
AcDbPolyline
 90
1
 70
1
 10
47.796982
 20
114.660000
 30
0.0
  0
SPLINE
  5
46e
100
AcDbEntity
  8
0
 62
7
100
AcDbSpline
 70
8
 71
3
 72
8
 73
4
 74
0
 40
0
 40
0
 40
0
 40
0
 40
1
 40
1
 40
1
 40
1
 10
83.781975
 20
114.608258
 30
0.0
 10
84.206603
 20
115.470800
 30
0.0
 10
84.975150
 20
116.654937
 30
0.0
 10
85.489852
 20
117.239673
 30
0.0
  0
LWPOLYLINE
  5
46f
100
AcDbEntity
  8
0
 62
7
100
AcDbPolyline
 90
1
 70
1
 10
74.227262
 20
113.415276
 30
0.0
  0
SPLINE
  5
470
100
AcDbEntity
  8
0
 62
7
100
AcDbSpline
 70
8
 71
3
 72
8
 73
4
 74
0
 40
0
 40
0
 40
0
 40
0
 40
1
 40
1
 40
1
 40
1
 10
85.526843
 20
118.678386
 30
0.0
 10
83.712038
 20
119.436661
 30
0.0
 10
83.696340
 20
119.432241
 30
0.0
 10
82.586760
 20
117.850431
 30
0.0
  0
SPLINE
  5
471
100
AcDbEntity
  8
0
 62
7
100
AcDbSpline
 70
8
 71
3
 72
8
 73
4
 74
0
 40
0
 40
0
 40
0
 40
0
 40
1
 40
1
 40
1
 40
1
 10
82.586760
 20
117.850431
 30
0.0
 10
82.023885
 20
117.047995
 30
0.0
 10
81.311025
 20
115.772380
 30
0.0
 10
81.002625
 20
115.015729
 30
0.0
  0
LWPOLYLINE
  5
472
100
AcDbEntity
  8
0
 62
7
100
AcDbPolyline
 90
3
 70
0
 10
85.489852
 20
117.239673
 30
0.0
 10
86.425680
 20
118.302829
 30
0.0
 10
85.526843
 20
118.678386
 30
0.0
  0
SPLINE
  5
473
100
AcDbEntity
  8
0
 62
7
100
AcDbSpline
 70
8
 71
3
 72
8
 73
4
 74
0
 40
0
 40
0
 40
0
 40
0
 40
1
 40
1
 40
1
 40
1
 10
81.560955
 20
113.368510
 30
0.0
 10
82.176428
 20
113.219191
 30
0.0
 10
82.754235
 20
113.084192
 30
0.0
 10
82.844963
 20
113.068511
 30
0.0
  0
SPLINE
  5
474
100
AcDbEntity
  8
0
 62
7
100
AcDbSpline
 70
8
 71
3
 72
8
 73
4
 74
0
 40
0
 40
0
 40
0
 40
0
 40
1
 40
1
 40
1
 40
1
 10
82.844963
 20
113.068511
 30
0.0
 10
82.935690
 20
113.052828
 30
0.0
 10
83.357348
 20
113.745716
 30
0.0
 10
83.781975
 20
114.608258
 30
0.0
  0
LWPOLYLINE
  5
475
100
AcDbEntity
  8
0
 62
7
100
AcDbPolyline
 90
3
 70
0
 10
81.002625
 20
115.015729
 30
0.0
 10
80.441910
 20
113.640000
 30
0.0
 10
81.560955
 20
113.368510
 30
0.0
  0
SPLINE
  5
476
100
AcDbEntity
  8
0
 62
7
100
AcDbSpline
 70
8
 71
3
 72
8
 73
4
 74
0
 40
0
 40
0
 40
0
 40
0
 40
1
 40
1
 40
1
 40
1
 10
42.723509
 20
114.180000
 30
0.0
 10
42.725459
 20
114.411000
 30
0.0
 10
43.077142
 20
115.316984
 30
0.0
 10
43.505071
 20
116.193297
 30
0.0
  0
LWPOLYLINE
  5
477
100
AcDbEntity
  8
0
 62
7
100
AcDbPolyline
 90
1
 70
1
 10
83.781975
 20
114.608258
 30
0.0
  0
SPLINE
  5
478
100
AcDbEntity
  8
0
 62
7
100
AcDbSpline
 70
8
 71
3
 72
8
 73
4
 74
0
 40
0
 40
0
 40
0
 40
0
 40
1
 40
1
 40
1
 40
1
 10
42.361565
 20
116.825399
 30
0.0
 10
41.304704
 20
116.296741
 30
0.0
 10
40.414162
 20
115.841919
 30
0.0
 10
40.382580
 20
115.814682
 30
0.0
  0
SPLINE
  5
479
100
AcDbEntity
  8
0
 62
7
100
AcDbSpline
 70
8
 71
3
 72
8
 73
4
 74
0
 40
0
 40
0
 40
0
 40
0
 40
1
 40
1
 40
1
 40
1
 10
40.382580
 20
115.814682
 30
0.0
 10
40.350997
 20
115.787450
 30
0.0
 10
40.502384
 20
115.314000
 30
0.0
 10
40.718986
 20
114.762580
 30
0.0
  0
SPLINE
  5
47a
100
AcDbEntity
  8
0
 62
7
100
AcDbSpline
 70
8
 71
3
 72
8
 73
4
 74
0
 40
0
 40
0
 40
0
 40
0
 40
1
 40
1
 40
1
 40
1
 10
40.718986
 20
114.762580
 30
0.0
 10
41.072024
 20
113.863838
 30
0.0
 10
41.196041
 20
113.760000
 30
0.0
 10
41.916406
 20
113.760000
 30
0.0
  0
SPLINE
  5
47b
100
AcDbEntity
  8
0
 62
7
100
AcDbSpline
 70
8
 71
3
 72
8
 73
4
 74
0
 40
0
 40
0
 40
0
 40
0
 40
1
 40
1
 40
1
 40
1
 10
41.916406
 20
113.760000
 30
0.0
 10
42.520396
 20
113.760000
 30
0.0
 10
42.720871
 20
113.864323
 30
0.0
 10
42.723509
 20
114.180000
 30
0.0
  0
LWPOLYLINE
  5
47c
100
AcDbEntity
  8
0
 62
7
100
AcDbPolyline
 90
3
 70
0
 10
43.505071
 20
116.193297
 30
0.0
 10
44.283127
 20
117.786595
 30
0.0
 10
42.361565
 20
116.825399
 30
0.0
  0
SPLINE
  5
47d
100
AcDbEntity
  8
0
 62
7
100
AcDbSpline
 70
8
 71
3
 72
8
 73
4
 74
0
 40
0
 40
0
 40
0
 40
0
 40
1
 40
1
 40
1
 40
1
 10
78.831668
 20
114.412246
 30
0.0
 10
79.084897
 20
115.421186
 30
0.0
 10
80.104125
 20
117.464908
 30
0.0
 10
81.013005
 20
118.786188
 30
0.0
  0
LWPOLYLINE
  5
47e
100
AcDbEntity
  8
0
 62
7
100
AcDbPolyline
 90
1
 70
1
 10
42.723509
 20
114.180000
 30
0.0
  0
SPLINE
  5
47f
100
AcDbEntity
  8
0
 62
7
100
AcDbSpline
 70
8
 71
3
 72
8
 73
4
 74
0
 40
0
 40
0
 40
0
 40
0
 40
1
 40
1
 40
1
 40
1
 10
80.937990
 20
120.222630
 30
0.0
 10
77.605402
 20
121.113487
 30
0.0
 10
73.547872
 20
121.920000
 30
0.0
 10
72.398592
 20
121.920000
 30
0.0
  0
SPLINE
  5
480
100
AcDbEntity
  8
0
 62
7
100
AcDbSpline
 70
8
 71
3
 72
8
 73
4
 74
0
 40
0
 40
0
 40
0
 40
0
 40
1
 40
1
 40
1
 40
1
 10
72.398592
 20
121.920000
 30
0.0
 10
71.967034
 20
121.920000
 30
0.0
 10
72.029684
 20
121.782971
 30
0.0
 10
72.864934
 20
120.900000
 30
0.0
  0
SPLINE
  5
481
100
AcDbEntity
  8
0
 62
7
100
AcDbSpline
 70
8
 71
3
 72
8
 73
4
 74
0
 40
0
 40
0
 40
0
 40
0
 40
1
 40
1
 40
1
 40
1
 10
72.864934
 20
120.900000
 30
0.0
 10
73.395612
 20
120.339000
 30
0.0
 10
74.118242
 20
119.484640
 30
0.0
 10
74.470776
 20
119.001423
 30
0.0
  0
SPLINE
  5
482
100
AcDbEntity
  8
0
 62
7
100
AcDbSpline
 70
8
 71
3
 72
8
 73
4
 74
0
 40
0
 40
0
 40
0
 40
0
 40
1
 40
1
 40
1
 40
1
 10
74.470776
 20
119.001423
 30
0.0
 10
75.146632
 20
118.075024
 30
0.0
 10
76.629375
 20
115.214708
 30
0.0
 10
76.907910
 20
114.300000
 30
0.0
  0
SPLINE
  5
483
100
AcDbEntity
  8
0
 62
7
100
AcDbSpline
 70
8
 71
3
 72
8
 73
4
 74
0
 40
0
 40
0
 40
0
 40
0
 40
1
 40
1
 40
1
 40
1
 10
76.907910
 20
114.300000
 30
0.0
 10
77.035418
 20
113.881274
 30
0.0
 10
77.251523
 20
113.760000
 30
0.0
 10
77.870153
 20
113.760000
 30
0.0
  0
SPLINE
  5
484
100
AcDbEntity
  8
0
 62
7
100
AcDbSpline
 70
8
 71
3
 72
8
 73
4
 74
0
 40
0
 40
0
 40
0
 40
0
 40
1
 40
1
 40
1
 40
1
 10
77.870153
 20
113.760000
 30
0.0
 10
78.538035
 20
113.760000
 30
0.0
 10
78.694627
 20
113.866222
 30
0.0
 10
78.831668
 20
114.412246
 30
0.0
  0
LWPOLYLINE
  5
485
100
AcDbEntity
  8
0
 62
7
100
AcDbPolyline
 90
3
 70
0
 10
81.013005
 20
118.786188
 30
0.0
 10
81.835980
 20
119.982582
 30
0.0
 10
80.937990
 20
120.222630
 30
0.0
  0
LWPOLYLINE
  5
486
100
AcDbEntity
  8
0
 62
7
100
AcDbPolyline
 90
1
 70
1
 10
78.831668
 20
114.412246
 30
0.0
  0
ENDSEC
  0
SECTION
  2
OBJECTS
  0
DICTIONARY
  5
C
330
0
100
AcDbDictionary
  3
ACAD_GROUP
350
D
  3
ACAD_MLINESTYLE
350
17
  0
DICTIONARY
  5
D
330
C
100
AcDbDictionary
  0
DICTIONARY
  5
1A
330
C
100
AcDbDictionary
  0
DICTIONARY
  5
17
330
C
100
AcDbDictionary
  3
STANDARD
350
18
  0
DICTIONARY
  5
19
330
C
100
AcDbDictionary
  0
ENDSEC
  0
EOF
