  0
SECTION
  2
HEADER
  9
$ACADVER
  1
AC1014
  9
$HANDSEED
  5
FFFF
  9
$MEASUREMENT
 70
     1
  0
ENDSEC
  0
SECTION
  2
TABLES
  0
TABLE
  2
VPORT
  5
8
330
0
100
AcDbSymbolTable
 70
     4
  0
VPORT
  5
2E
330
8
100
AcDbSymbolTableRecord
100
AcDbViewportTableRecord
  2
*ACTIVE
 70
     0
 10
0.0
 20
0.0
 11
1.0
 21
1.0
 12
210.0
 22
148.5
 13
0.0
 23
0.0
 14
10.0
 24
10.0
 15
10.0
 25
10.0
 16
0.0
 26
0.0
 36
1.0
 17
0.0
 27
0.0
 37
0.0
 40
341.0
 41
1.24
 42
50.0
 43
0.0
 44
0.0
 50
0.0
 51
0.0
 71
     0
 72
   100
 73
     1
 74
     3
 75
     0
 76
     0
 77
     0
 78
     0
  0
ENDTAB
  0
TABLE
  2
LTYPE
  5
5
330
0
100
AcDbSymbolTable
 70
     1
  0
LTYPE
  5
14
330
5
100
AcDbSymbolTableRecord
100
AcDbLinetypeTableRecord
  2
BYBLOCK
 70
     0
  3

 72
    65
 73
     0
 40
0.0
  0
LTYPE
  5
15
330
5
100
AcDbSymbolTableRecord
100
AcDbLinetypeTableRecord
  2
BYLAYER
 70
     0
  3

 72
    65
 73
     0
 40
0.0
  0
LTYPE
  5
16
330
5
100
AcDbSymbolTableRecord
100
AcDbLinetypeTableRecord
  2
CONTINUOUS
 70
     0
  3
Solid line
 72
    65
 73
     0
 40
0.0
  0
ENDTAB
  0
TABLE
  2
LAYER
  5
2
100
AcDbSymbolTable
 70
1
  0
LAYER
  5
50
100
AcDbSymbolTableRecord
100
AcDbLayerTableRecord
  2
0
 70
0
  6
CONTINUOUS
  0
ENDTAB
  0
TABLE
  2
STYLE
  5
3
330
0
100
AcDbSymbolTable
 70
     1
  0
STYLE
  5
11
330
3
100
AcDbSymbolTableRecord
100
AcDbTextStyleTableRecord
  2
STANDARD
 70
     0
 40
0.0
 41
1.0
 50
0.0
 71
     0
 42
2.5
  3
txt
  4

  0
ENDTAB
  0
TABLE
  2
VIEW
  5
6
330
0
100
AcDbSymbolTable
 70
     0
  0
ENDTAB
  0
TABLE
  2
UCS
  5
7
330
0
100
AcDbSymbolTable
 70
     0
  0
ENDTAB
  0
TABLE
  2
APPID
  5
9
330
0
100
AcDbSymbolTable
 70
     2
  0
APPID
  5
12
330
9
100
AcDbSymbolTableRecord
100
AcDbRegAppTableRecord
  2
ACAD
 70
     0
  0
ENDTAB
  0
TABLE
  2
DIMSTYLE
  5
A
330
0
100
AcDbSymbolTable
 70
     1
  0
DIMSTYLE
105
27
330
A
100
AcDbSymbolTableRecord
100
AcDbDimStyleTableRecord
  2
ISO-25
 70
     0
  3

  4

  5

  6

  7

 40
1.0
 41
2.5
 42
0.625
 43
3.75
 44
1.25
 45
0.0
 46
0.0
 47
0.0
 48
0.0
140
2.5
141
2.5
142
0.0
143
0.03937007874016
144
1.0
145
0.0
146
1.0
147
0.625
 71
     0
 72
     0
 73
     0
 74
     0
 75
     0
 76
     0
 77
     1
 78
     8
170
     0
171
     3
172
     1
173
     0
174
     0
175
     0
176
     0
177
     0
178
     0
270
     2
271
     2
272
     2
273
     2
274
     3
340
11
275
     0
280
     0
281
     0
282
     0
283
     0
284
     8
285
     0
286
     0
287
     3
288
     0
  0
ENDTAB
  0
TABLE
  2
BLOCK_RECORD
  5
1
330
0
100
AcDbSymbolTable
 70
     1
  0
BLOCK_RECORD
  5
1F
330
1
100
AcDbSymbolTableRecord
100
AcDbBlockTableRecord
  2
*MODEL_SPACE
  0
BLOCK_RECORD
  5
1B
330
1
100
AcDbSymbolTableRecord
100
AcDbBlockTableRecord
  2
*PAPER_SPACE
  0
ENDTAB
  0
ENDSEC
  0
SECTION
  2
BLOCKS
  0
BLOCK
  5
20
330
1F
100
AcDbEntity
  8
0
100
AcDbBlockBegin
  2
*MODEL_SPACE
 70
     0
 10
0.0
 20
0.0
 30
0.0
  3
*MODEL_SPACE
  1

  0
ENDBLK
  5
21
330
1F
100
AcDbEntity
  8
0
100
AcDbBlockEnd
  0
BLOCK
  5
1C
330
1B
100
AcDbEntity
 67
     1
  8
0
100
AcDbBlockBegin
  2
*PAPER_SPACE
  1

  0
ENDBLK
  5
1D
330
1B
100
AcDbEntity
 67
     1
  8
0
100
AcDbBlockEnd
  0
ENDSEC
  0
SECTION
  2
ENTITIES
  0
SPLINE
  5
100
100
AcDbEntity
  8
0
 62
7
100
AcDbSpline
 70
8
 71
3
 72
8
 73
4
 74
0
 40
0
 40
0
 40
0
 40
0
 40
1
 40
1
 40
1
 40
1
 10
58.515940
 20
8.766450
 30
0.0
 10
54.625486
 20
9.297090
 30
0.0
 10
51.157316
 20
10.076018
 30
0.0
 10
47.836598
 20
11.164965
 30
0.0
  0
SPLINE
  5
101
100
AcDbEntity
  8
0
 62
7
100
AcDbSpline
 70
8
 71
3
 72
8
 73
4
 74
0
 40
0
 40
0
 40
0
 40
0
 40
1
 40
1
 40
1
 40
1
 10
47.836598
 20
11.164965
 30
0.0
 10
37.960552
 20
14.403555
 30
0.0
 10
31.021940
 20
18.647460
 30
0.0
 10
23.732157
 20
25.908097
 30
0.0
  0
SPLINE
  5
102
100
AcDbEntity
  8
0
 62
7
100
AcDbSpline
 70
8
 71
3
 72
8
 73
4
 74
0
 40
0
 40
0
 40
0
 40
0
 40
1
 40
1
 40
1
 40
1
 10
23.732157
 20
25.908097
 30
0.0
 10
21.538843
 20
28.092645
 30
0.0
 10
18.982737
 20
30.906000
 30
0.0
 10
18.051921
 20
32.160000
 30
0.0
  0
SPLINE
  5
103
100
AcDbEntity
  8
0
 62
7
100
AcDbSpline
 70
8
 71
3
 72
8
 73
4
 74
0
 40
0
 40
0
 40
0
 40
0
 40
1
 40
1
 40
1
 40
1
 10
18.051921
 20
32.160000
 30
0.0
 10
11.713684
 20
40.698900
 30
0.0
 10
7.776358
 20
50.442008
 30
0.0
 10
6.358608
 20
61.095664
 30
0.0
  0
SPLINE
  5
104
100
AcDbEntity
  8
0
 62
7
100
AcDbSpline
 70
8
 71
3
 72
8
 73
4
 74
0
 40
0
 40
0
 40
0
 40
0
 40
1
 40
1
 40
1
 40
1
 10
6.358608
 20
61.095664
 30
0.0
 10
5.902446
 20
64.523484
 30
0.0
 10
5.902446
 20
72.276516
 30
0.0
 10
6.358608
 20
75.704335
 30
0.0
  0
SPLINE
  5
105
100
AcDbEntity
  8
0
 62
7
100
AcDbSpline
 70
8
 71
3
 72
8
 73
4
 74
0
 40
0
 40
0
 40
0
 40
0
 40
1
 40
1
 40
1
 40
1
 10
6.358608
 20
75.704335
 30
0.0
 10
8.279995
 20
90.142567
 30
0.0
 10
15.162022
 20
103.503142
 30
0.0
 10
25.431439
 20
112.731799
 30
0.0
  0
SPLINE
  5
106
100
AcDbEntity
  8
0
 62
7
100
AcDbSpline
 70
8
 71
3
 72
8
 73
4
 74
0
 40
0
 40
0
 40
0
 40
0
 40
1
 40
1
 40
1
 40
1
 10
25.431439
 20
112.731799
 30
0.0
 10
31.981522
 20
118.618060
 30
0.0
 10
39.023848
 20
122.736999
 30
0.0
 10
47.050652
 20
125.376518
 30
0.0
  0
SPLINE
  5
107
100
AcDbEntity
  8
0
 62
7
100
AcDbSpline
 70
8
 71
3
 72
8
 73
4
 74
0
 40
0
 40
0
 40
0
 40
0
 40
1
 40
1
 40
1
 40
1
 10
47.050652
 20
125.376518
 30
0.0
 10
53.745398
 20
127.578005
 30
0.0
 10
58.854266
 20
128.390629
 30
0.0
 10
66.000000
 20
128.390629
 30
0.0
  0
SPLINE
  5
108
100
AcDbEntity
  8
0
 62
7
100
AcDbSpline
 70
8
 71
3
 72
8
 73
4
 74
0
 40
0
 40
0
 40
0
 40
0
 40
1
 40
1
 40
1
 40
1
 10
66.000000
 20
128.390629
 30
0.0
 10
73.124636
 20
128.390629
 30
0.0
 10
78.257100
 20
127.577127
 30
0.0
 10
84.887497
 20
125.396937
 30
0.0
  0
SPLINE
  5
109
100
AcDbEntity
  8
0
 62
7
100
AcDbSpline
 70
8
 71
3
 72
8
 73
4
 74
0
 40
0
 40
0
 40
0
 40
0
 40
1
 40
1
 40
1
 40
1
 10
84.887497
 20
125.396937
 30
0.0
 10
96.681045
 20
121.519013
 30
0.0
 10
107.657850
 20
113.497707
 30
0.0
 10
114.629415
 20
103.663013
 30
0.0
  0
SPLINE
  5
10a
100
AcDbEntity
  8
0
 62
7
100
AcDbSpline
 70
8
 71
3
 72
8
 73
4
 74
0
 40
0
 40
0
 40
0
 40
0
 40
1
 40
1
 40
1
 40
1
 10
114.629415
 20
103.663013
 30
0.0
 10
120.745965
 20
95.034478
 30
0.0
 10
124.254413
 20
86.126760
 30
0.0
 10
125.641395
 20
75.704335
 30
0.0
  0
SPLINE
  5
10b
100
AcDbEntity
  8
0
 62
7
100
AcDbSpline
 70
8
 71
3
 72
8
 73
4
 74
0
 40
0
 40
0
 40
0
 40
0
 40
1
 40
1
 40
1
 40
1
 10
125.641395
 20
75.704335
 30
0.0
 10
126.097553
 20
72.276516
 30
0.0
 10
126.097553
 20
64.523484
 30
0.0
 10
125.641395
 20
61.095664
 30
0.0
  0
SPLINE
  5
10c
100
AcDbEntity
  8
0
 62
7
100
AcDbSpline
 70
8
 71
3
 72
8
 73
4
 74
0
 40
0
 40
0
 40
0
 40
0
 40
1
 40
1
 40
1
 40
1
 10
125.641395
 20
61.095664
 30
0.0
 10
124.335840
 20
51.285098
 30
0.0
 10
120.853223
 20
42.074250
 30
0.0
 10
115.622647
 20
34.598025
 30
0.0
  0
SPLINE
  5
10d
100
AcDbEntity
  8
0
 62
7
100
AcDbSpline
 70
8
 71
3
 72
8
 73
4
 74
0
 40
0
 40
0
 40
0
 40
0
 40
1
 40
1
 40
1
 40
1
 10
115.622647
 20
34.598025
 30
0.0
 10
112.723883
 20
30.454718
 30
0.0
 10
112.165515
 20
29.793210
 30
0.0
 10
108.386280
 20
26.024902
 30
0.0
  0
SPLINE
  5
10e
100
AcDbEntity
  8
0
 62
7
100
AcDbSpline
 70
8
 71
3
 72
8
 73
4
 74
0
 40
0
 40
0
 40
0
 40
0
 40
1
 40
1
 40
1
 40
1
 10
108.386280
 20
26.024902
 30
0.0
 10
104.585707
 20
22.235325
 30
0.0
 10
102.912082
 20
20.844315
 30
0.0
 10
98.904780
 20
18.144457
 30
0.0
  0
SPLINE
  5
10f
100
AcDbEntity
  8
0
 62
7
100
AcDbSpline
 70
8
 71
3
 72
8
 73
4
 74
0
 40
0
 40
0
 40
0
 40
0
 40
1
 40
1
 40
1
 40
1
 10
98.904780
 20
18.144457
 30
0.0
 10
91.751250
 20
13.324890
 30
0.0
 10
82.710712
 20
10.010370
 30
0.0
 10
73.304336
 20
8.758605
 30
0.0
  0
SPLINE
  5
110
100
AcDbEntity
  8
0
 62
7
100
AcDbSpline
 70
8
 71
3
 72
8
 73
4
 74
0
 40
0
 40
0
 40
0
 40
0
 40
1
 40
1
 40
1
 40
1
 10
73.304336
 20
8.758605
 30
0.0
 10
70.033396
 20
8.323320
 30
0.0
 10
61.732510
 20
8.327730
 30
0.0
 10
58.515940
 20
8.766480
 30
0.0
  0
LWPOLYLINE
  5
111
100
AcDbEntity
  8
0
 62
7
100
AcDbPolyline
 90
1
 70
1
 10
58.515940
 20
8.766480
 30
0.0
  0
SPLINE
  5
112
100
AcDbEntity
  8
0
 62
7
100
AcDbSpline
 70
8
 71
3
 72
8
 73
4
 74
0
 40
0
 40
0
 40
0
 40
0
 40
1
 40
1
 40
1
 40
1
 10
64.349167
 20
20.006858
 30
0.0
 10
61.356293
 20
22.987695
 30
0.0
 10
58.942685
 20
25.207688
 30
0.0
 10
58.760566
 20
25.147148
 30
0.0
  0
SPLINE
  5
113
100
AcDbEntity
  8
0
 62
7
100
AcDbSpline
 70
8
 71
3
 72
8
 73
4
 74
0
 40
0
 40
0
 40
0
 40
0
 40
1
 40
1
 40
1
 40
1
 10
58.760566
 20
25.147148
 30
0.0
 10
58.516430
 20
25.065998
 30
0.0
 10
58.424100
 20
24.189998
 30
0.0
 10
58.373314
 20
21.473055
 30
0.0
  0
LWPOLYLINE
  5
114
100
AcDbEntity
  8
0
 62
7
100
AcDbPolyline
 90
3
 70
0
 10
68.708602
 20
14.593830
 30
0.0
 10
69.617203
 20
14.760000
 30
0.0
 10
64.349167
 20
20.006858
 30
0.0
  0
SPLINE
  5
115
100
AcDbEntity
  8
0
 62
7
100
AcDbSpline
 70
8
 71
3
 72
8
 73
4
 74
0
 40
0
 40
0
 40
0
 40
0
 40
1
 40
1
 40
1
 40
1
 10
59.915893
 20
16.283828
 30
0.0
 10
61.425169
 20
14.762895
 30
0.0
 10
61.600806
 20
14.656748
 30
0.0
 10
62.742580
 20
14.575463
 30
0.0
  0
SPLINE
  5
116
100
AcDbEntity
  8
0
 62
7
100
AcDbSpline
 70
8
 71
3
 72
8
 73
4
 74
0
 40
0
 40
0
 40
0
 40
0
 40
1
 40
1
 40
1
 40
1
 10
62.742580
 20
14.575463
 30
0.0
 10
64.969669
 20
14.416913
 30
0.0
 10
67.788673
 20
14.425590
 30
0.0
 10
68.708598
 20
14.593838
 30
0.0
  0
LWPOLYLINE
  5
117
100
AcDbEntity
  8
0
 62
7
100
AcDbPolyline
 90
3
 70
0
 10
58.373314
 20
21.473055
 30
0.0
 10
58.306624
 20
17.905523
 30
0.0
 10
59.915893
 20
16.283828
 30
0.0
  0
SPLINE
  5
118
100
AcDbEntity
  8
0
 62
7
100
AcDbSpline
 70
8
 71
3
 72
8
 73
4
 74
0
 40
0
 40
0
 40
0
 40
0
 40
1
 40
1
 40
1
 40
1
 10
77.520000
 20
15.840000
 30
0.0
 10
77.520000
 20
15.972000
 30
0.0
 10
77.364375
 20
16.080000
 30
0.0
 10
77.174167
 20
16.080000
 30
0.0
  0
SPLINE
  5
119
100
AcDbEntity
  8
0
 62
7
100
AcDbSpline
 70
8
 71
3
 72
8
 73
4
 74
0
 40
0
 40
0
 40
0
 40
0
 40
1
 40
1
 40
1
 40
1
 10
77.174167
 20
16.080000
 30
0.0
 10
76.983953
 20
16.080000
 30
0.0
 10
76.761577
 20
15.972000
 30
0.0
 10
76.680000
 20
15.840000
 30
0.0
  0
SPLINE
  5
11a
100
AcDbEntity
  8
0
 62
7
100
AcDbSpline
 70
8
 71
3
 72
8
 73
4
 74
0
 40
0
 40
0
 40
0
 40
0
 40
1
 40
1
 40
1
 40
1
 10
76.680000
 20
15.840000
 30
0.0
 10
76.598422
 20
15.708000
 30
0.0
 10
76.754025
 20
15.600000
 30
0.0
 10
77.025833
 20
15.600000
 30
0.0
  0
SPLINE
  5
11b
100
AcDbEntity
  8
0
 62
7
100
AcDbSpline
 70
8
 71
3
 72
8
 73
4
 74
0
 40
0
 40
0
 40
0
 40
0
 40
1
 40
1
 40
1
 40
1
 10
77.025833
 20
15.600000
 30
0.0
 10
77.297625
 20
15.600000
 30
0.0
 10
77.520000
 20
15.708000
 30
0.0
 10
77.520000
 20
15.840000
 30
0.0
  0
LWPOLYLINE
  5
11c
100
AcDbEntity
  8
0
 62
7
100
AcDbPolyline
 90
1
 70
1
 10
68.708598
 20
14.593838
 30
0.0
  0
SPLINE
  5
11d
100
AcDbEntity
  8
0
 62
7
100
AcDbSpline
 70
8
 71
3
 72
8
 73
4
 74
0
 40
0
 40
0
 40
0
 40
0
 40
1
 40
1
 40
1
 40
1
 10
55.200000
 20
21.804727
 30
0.0
 10
55.200000
 20
23.771572
 30
0.0
 10
55.104494
 20
24.990698
 30
0.0
 10
54.942576
 20
25.090770
 30
0.0
  0
SPLINE
  5
11e
100
AcDbEntity
  8
0
 62
7
100
AcDbSpline
 70
8
 71
3
 72
8
 73
4
 74
0
 40
0
 40
0
 40
0
 40
0
 40
1
 40
1
 40
1
 40
1
 10
54.942576
 20
25.090770
 30
0.0
 10
54.799932
 20
25.178925
 30
0.0
 10
53.029075
 20
23.606850
 30
0.0
 10
50.970926
 20
21.564930
 30
0.0
  0
LWPOLYLINE
  5
11f
100
AcDbEntity
  8
0
 62
7
100
AcDbPolyline
 90
1
 70
1
 10
77.520000
 20
15.840000
 30
0.0
  0
SPLINE
  5
120
100
AcDbEntity
  8
0
 62
7
100
AcDbSpline
 70
8
 71
3
 72
8
 73
4
 74
0
 40
0
 40
0
 40
0
 40
0
 40
1
 40
1
 40
1
 40
1
 10
47.997324
 20
17.575650
 30
0.0
 10
48.404666
 20
17.408258
 30
0.0
 10
49.624908
 20
17.009250
 30
0.0
 10
50.708974
 20
16.688955
 30
0.0
  0
LWPOLYLINE
  5
121
100
AcDbEntity
  8
0
 62
7
100
AcDbPolyline
 90
3
 70
0
 10
50.970926
 20
21.564930
 30
0.0
 10
47.256703
 20
17.880000
 30
0.0
 10
47.997324
 20
17.575650
 30
0.0
  0
LWPOLYLINE
  5
122
100
AcDbEntity
  8
0
 62
7
100
AcDbPolyline
 90
5
 70
0
 10
50.708974
 20
16.688955
 30
0.0
 10
52.680000
 20
16.106610
 30
0.0
 10
53.940000
 20
17.392200
 30
0.0
 10
55.200000
 20
18.677790
 30
0.0
 10
55.200000
 20
21.804727
 30
0.0
  0
SPLINE
  5
123
100
AcDbEntity
  8
0
 62
7
100
AcDbSpline
 70
8
 71
3
 72
8
 73
4
 74
0
 40
0
 40
0
 40
0
 40
0
 40
1
 40
1
 40
1
 40
1
 10
66.273537
 20
31.037535
 30
0.0
 10
62.059117
 20
35.251950
 30
0.0
 10
58.958377
 20
38.172915
 30
0.0
 10
58.766649
 20
38.109180
 30
0.0
  0
SPLINE
  5
124
100
AcDbEntity
  8
0
 62
7
100
AcDbSpline
 70
8
 71
3
 72
8
 73
4
 74
0
 40
0
 40
0
 40
0
 40
0
 40
1
 40
1
 40
1
 40
1
 10
58.766649
 20
38.109180
 30
0.0
 10
58.514735
 20
38.025435
 30
0.0
 10
58.424733
 20
37.183290
 30
0.0
 10
58.373284
 20
34.428510
 30
0.0
  0
LWPOLYLINE
  5
125
100
AcDbEntity
  8
0
 62
7
100
AcDbPolyline
 90
3
 70
0
 10
73.386886
 20
20.388652
 30
0.0
 10
73.453771
 20
23.857298
 30
0.0
 10
66.273537
 20
31.037535
 30
0.0
  0
SPLINE
  5
126
100
AcDbEntity
  8
0
 62
7
100
AcDbSpline
 70
8
 71
3
 72
8
 73
4
 74
0
 40
0
 40
0
 40
0
 40
0
 40
1
 40
1
 40
1
 40
1
 10
65.333285
 20
23.821845
 30
0.0
 10
70.467523
 20
18.681855
 30
0.0
 10
72.489274
 20
16.805138
 30
0.0
 10
72.839998
 20
16.853633
 30
0.0
  0
SPLINE
  5
127
100
AcDbEntity
  8
0
 62
7
100
AcDbSpline
 70
8
 71
3
 72
8
 73
4
 74
0
 40
0
 40
0
 40
0
 40
0
 40
1
 40
1
 40
1
 40
1
 10
72.839998
 20
16.853633
 30
0.0
 10
73.291207
 20
16.916033
 30
0.0
 10
73.324010
 20
17.128058
 30
0.0
 10
73.386883
 20
20.388652
 30
0.0
  0
LWPOLYLINE
  5
128
100
AcDbEntity
  8
0
 62
7
100
AcDbPolyline
 90
3
 70
0
 10
58.373284
 20
34.428510
 30
0.0
 10
58.306572
 20
30.856432
 30
0.0
 10
65.333285
 20
23.821845
 30
0.0
  0
SPLINE
  5
129
100
AcDbEntity
  8
0
 62
7
100
AcDbSpline
 70
8
 71
3
 72
8
 73
4
 74
0
 40
0
 40
0
 40
0
 40
0
 40
1
 40
1
 40
1
 40
1
 10
85.020000
 20
17.955922
 30
0.0
 10
86.307000
 20
18.428145
 30
0.0
 10
87.360000
 20
18.882922
 30
0.0
 10
87.360000
 20
18.966525
 30
0.0
  0
SPLINE
  5
12a
100
AcDbEntity
  8
0
 62
7
100
AcDbSpline
 70
8
 71
3
 72
8
 73
4
 74
0
 40
0
 40
0
 40
0
 40
0
 40
1
 40
1
 40
1
 40
1
 10
87.360000
 20
18.966525
 30
0.0
 10
87.360000
 20
19.363207
 30
0.0
 10
77.399423
 20
29.052000
 30
0.0
 10
77.058788
 20
28.986667
 30
0.0
  0
SPLINE
  5
12b
100
AcDbEntity
  8
0
 62
7
100
AcDbSpline
 70
8
 71
3
 72
8
 73
4
 74
0
 40
0
 40
0
 40
0
 40
0
 40
1
 40
1
 40
1
 40
1
 10
77.058788
 20
28.986667
 30
0.0
 10
76.738350
 20
28.925167
 30
0.0
 10
76.669695
 20
28.380090
 30
0.0
 10
76.613108
 20
25.447830
 30
0.0
  0
LWPOLYLINE
  5
12c
100
AcDbEntity
  8
0
 62
7
100
AcDbPolyline
 90
1
 70
1
 10
73.386883
 20
20.388652
 30
0.0
  0
SPLINE
  5
12d
100
AcDbEntity
  8
0
 62
7
100
AcDbSpline
 70
8
 71
3
 72
8
 73
4
 74
0
 40
0
 40
0
 40
0
 40
0
 40
1
 40
1
 40
1
 40
1
 10
79.127813
 20
19.392022
 30
0.0
 10
81.180232
 20
17.333220
 30
0.0
 10
81.808898
 20
16.832617
 30
0.0
 10
82.194705
 20
16.949857
 30
0.0
  0
SPLINE
  5
12e
100
AcDbEntity
  8
0
 62
7
100
AcDbSpline
 70
8
 71
3
 72
8
 73
4
 74
0
 40
0
 40
0
 40
0
 40
0
 40
1
 40
1
 40
1
 40
1
 10
82.194705
 20
16.949857
 30
0.0
 10
82.461607
 20
17.030970
 30
0.0
 10
83.732985
 20
17.483692
 30
0.0
 10
85.019985
 20
17.955922
 30
0.0
  0
LWPOLYLINE
  5
12f
100
AcDbEntity
  8
0
 62
7
100
AcDbPolyline
 90
3
 70
0
 10
76.613108
 20
25.447830
 30
0.0
 10
76.546208
 20
21.981660
 30
0.0
 10
79.127813
 20
19.392022
 30
0.0
  0
LWPOLYLINE
  5
130
100
AcDbEntity
  8
0
 62
7
100
AcDbPolyline
 90
1
 70
1
 10
85.019985
 20
17.955922
 30
0.0
  0
SPLINE
  5
131
100
AcDbEntity
  8
0
 62
7
100
AcDbSpline
 70
8
 71
3
 72
8
 73
4
 74
0
 40
0
 40
0
 40
0
 40
0
 40
1
 40
1
 40
1
 40
1
 10
55.200000
 20
34.813147
 30
0.0
 10
55.200000
 20
36.836633
 30
0.0
 10
55.107367
 20
37.948920
 30
0.0
 10
54.929707
 20
38.058720
 30
0.0
  0
SPLINE
  5
132
100
AcDbEntity
  8
0
 62
7
100
AcDbSpline
 70
8
 71
3
 72
8
 73
4
 74
0
 40
0
 40
0
 40
0
 40
0
 40
1
 40
1
 40
1
 40
1
 10
54.929707
 20
38.058720
 30
0.0
 10
54.768428
 20
38.158402
 30
0.0
 10
51.670936
 20
35.232810
 30
0.0
 10
47.249707
 20
30.804945
 30
0.0
  0
LWPOLYLINE
  5
133
100
AcDbEntity
  8
0
 62
7
100
AcDbPolyline
 90
3
 70
0
 10
49.194007
 20
25.707315
 30
0.0
 10
55.200000
 20
31.734623
 30
0.0
 10
55.200000
 20
34.813147
 30
0.0
  0
SPLINE
  5
134
100
AcDbEntity
  8
0
 62
7
100
AcDbSpline
 70
8
 71
3
 72
8
 73
4
 74
0
 40
0
 40
0
 40
0
 40
0
 40
1
 40
1
 40
1
 40
1
 10
41.340000
 20
20.465663
 30
0.0
 10
42.165000
 20
20.049397
 30
0.0
 10
42.918302
 20
19.702335
 30
0.0
 10
43.014007
 20
19.694407
 30
0.0
  0
SPLINE
  5
135
100
AcDbEntity
  8
0
 62
7
100
AcDbSpline
 70
8
 71
3
 72
8
 73
4
 74
0
 40
0
 40
0
 40
0
 40
0
 40
1
 40
1
 40
1
 40
1
 10
43.014007
 20
19.694407
 30
0.0
 10
43.109710
 20
19.686457
 30
0.0
 10
45.890710
 20
22.392292
 30
0.0
 10
49.194007
 20
25.707315
 30
0.0
  0
LWPOLYLINE
  5
136
100
AcDbEntity
  8
0
 62
7
100
AcDbPolyline
 90
5
 70
0
 10
47.249707
 20
30.804945
 30
0.0
 10
39.840000
 20
23.384123
 30
0.0
 10
39.840000
 20
22.303320
 30
0.0
 10
39.840000
 20
21.222510
 30
0.0
 10
41.340000
 20
20.465663
 30
0.0
  0
SPLINE
  5
137
100
AcDbEntity
  8
0
 62
7
100
AcDbSpline
 70
8
 71
3
 72
8
 73
4
 74
0
 40
0
 40
0
 40
0
 40
0
 40
1
 40
1
 40
1
 40
1
 10
91.300373
 20
20.785680
 30
0.0
 10
91.622565
 20
20.909310
 30
0.0
 10
91.680000
 20
21.461647
 30
0.0
 10
91.680000
 20
24.436290
 30
0.0
  0
LWPOLYLINE
  5
138
100
AcDbEntity
  8
0
 62
7
100
AcDbPolyline
 90
1
 70
1
 10
49.194007
 20
25.707315
 30
0.0
  0
SPLINE
  5
139
100
AcDbEntity
  8
0
 62
7
100
AcDbSpline
 70
8
 71
3
 72
8
 73
4
 74
0
 40
0
 40
0
 40
0
 40
0
 40
1
 40
1
 40
1
 40
1
 10
84.660000
 20
34.978297
 30
0.0
 10
79.518030
 20
40.132777
 30
0.0
 10
77.511585
 20
41.997270
 30
0.0
 10
77.160000
 20
41.947687
 30
0.0
  0
SPLINE
  5
13a
100
AcDbEntity
  8
0
 62
7
100
AcDbSpline
 70
8
 71
3
 72
8
 73
4
 74
0
 40
0
 40
0
 40
0
 40
0
 40
1
 40
1
 40
1
 40
1
 10
77.160000
 20
41.947687
 30
0.0
 10
76.708838
 20
41.884087
 30
0.0
 10
76.675980
 20
41.671425
 30
0.0
 10
76.613093
 20
38.408385
 30
0.0
  0
LWPOLYLINE
  5
13b
100
AcDbEntity
  8
0
 62
7
100
AcDbPolyline
 90
3
 70
0
 10
91.680000
 20
24.436290
 30
0.0
 10
91.680000
 20
27.941220
 30
0.0
 10
84.660000
 20
34.978297
 30
0.0
  0
SPLINE
  5
13c
100
AcDbEntity
  8
0
 62
7
100
AcDbSpline
 70
8
 71
3
 72
8
 73
4
 74
0
 40
0
 40
0
 40
0
 40
0
 40
1
 40
1
 40
1
 40
1
 10
83.691593
 20
27.788385
 30
0.0
 10
87.621570
 20
23.856772
 30
0.0
 10
90.855840
 20
20.640000
 30
0.0
 10
90.878873
 20
20.640000
 30
0.0
  0
SPLINE
  5
13d
100
AcDbEntity
  8
0
 62
7
100
AcDbSpline
 70
8
 71
3
 72
8
 73
4
 74
0
 40
0
 40
0
 40
0
 40
0
 40
1
 40
1
 40
1
 40
1
 10
90.878873
 20
20.640000
 30
0.0
 10
90.901898
 20
20.640000
 30
0.0
 10
91.091573
 20
20.705550
 30
0.0
 10
91.300373
 20
20.785680
 30
0.0
  0
LWPOLYLINE
  5
13e
100
AcDbEntity
  8
0
 62
7
100
AcDbPolyline
 90
3
 70
0
 10
76.613093
 20
38.408385
 30
0.0
 10
76.546193
 20
34.936770
 30
0.0
 10
83.691593
 20
27.788385
 30
0.0
  0
SPLINE
  5
13f
100
AcDbEntity
  8
0
 62
7
100
AcDbSpline
 70
8
 71
3
 72
8
 73
4
 74
0
 40
0
 40
0
 40
0
 40
0
 40
1
 40
1
 40
1
 40
1
 10
99.000000
 20
25.770195
 30
0.0
 10
101.503357
 20
27.650153
 30
0.0
 10
106.807380
 20
32.950290
 30
0.0
 10
108.682717
 20
35.445832
 30
0.0
  0
LWPOLYLINE
  5
140
100
AcDbEntity
  8
0
 62
7
100
AcDbPolyline
 90
1
 70
1
 10
91.300373
 20
20.785680
 30
0.0
  0
SPLINE
  5
141
100
AcDbEntity
  8
0
 62
7
100
AcDbSpline
 70
8
 71
3
 72
8
 73
4
 74
0
 40
0
 40
0
 40
0
 40
0
 40
1
 40
1
 40
1
 40
1
 10
110.160000
 20
39.593362
 30
0.0
 10
110.160000
 20
41.385143
 30
0.0
 10
110.090325
 20
41.801790
 30
0.0
 10
109.770308
 20
41.924603
 30
0.0
  0
SPLINE
  5
142
100
AcDbEntity
  8
0
 62
7
100
AcDbSpline
 70
8
 71
3
 72
8
 73
4
 74
0
 40
0
 40
0
 40
0
 40
0
 40
1
 40
1
 40
1
 40
1
 10
109.770308
 20
41.924603
 30
0.0
 10
109.485623
 20
42.033848
 30
0.0
 10
107.416215
 20
40.103752
 30
0.0
 10
102.090307
 20
34.761608
 30
0.0
  0
LWPOLYLINE
  5
143
100
AcDbEntity
  8
0
 62
7
100
AcDbPolyline
 90
3
 70
0
 10
108.682717
 20
35.445832
 30
0.0
 10
110.160000
 20
37.411665
 30
0.0
 10
110.160000
 20
39.593362
 30
0.0
  0
SPLINE
  5
144
100
AcDbEntity
  8
0
 62
7
100
AcDbSpline
 70
8
 71
3
 72
8
 73
4
 74
0
 40
0
 40
0
 40
0
 40
0
 40
1
 40
1
 40
1
 40
1
 10
95.940000
 20
23.552633
 30
0.0
 10
96.567000
 20
23.979263
 30
0.0
 10
97.944000
 20
24.977168
 30
0.0
 10
99.000000
 20
25.770195
 30
0.0
  0
LWPOLYLINE
  5
145
100
AcDbEntity
  8
0
 62
7
100
AcDbPolyline
 90
5
 70
0
 10
102.090307
 20
34.761608
 30
0.0
 10
94.800000
 20
27.449070
 30
0.0
 10
94.800000
 20
25.113008
 30
0.0
 10
94.800000
 20
22.776938
 30
0.0
 10
95.940000
 20
23.552633
 30
0.0
  0
SPLINE
  5
146
100
AcDbEntity
  8
0
 62
7
100
AcDbSpline
 70
8
 71
3
 72
8
 73
4
 74
0
 40
0
 40
0
 40
0
 40
0
 40
1
 40
1
 40
1
 40
1
 10
36.720000
 20
26.160000
 30
0.0
 10
36.720000
 20
28.090140
 30
0.0
 10
36.633148
 20
29.040000
 30
0.0
 10
36.456665
 20
29.040000
 30
0.0
  0
SPLINE
  5
147
100
AcDbEntity
  8
0
 62
7
100
AcDbSpline
 70
8
 71
3
 72
8
 73
4
 74
0
 40
0
 40
0
 40
0
 40
0
 40
1
 40
1
 40
1
 40
1
 10
36.456665
 20
29.040000
 30
0.0
 10
36.311830
 20
29.040000
 30
0.0
 10
35.447618
 20
28.320075
 30
0.0
 10
34.536192
 20
27.440168
 30
0.0
  0
LWPOLYLINE
  5
148
100
AcDbEntity
  8
0
 62
7
100
AcDbPolyline
 90
1
 70
1
 10
99.000000
 20
25.770195
 30
0.0
  0
SPLINE
  5
149
100
AcDbEntity
  8
0
 62
7
100
AcDbSpline
 70
8
 71
3
 72
8
 73
4
 74
0
 40
0
 40
0
 40
0
 40
0
 40
1
 40
1
 40
1
 40
1
 10
34.619527
 20
24.565080
 30
0.0
 10
35.576786
 20
23.863687
 30
0.0
 10
36.441000
 20
23.287612
 30
0.0
 10
36.540000
 20
23.284913
 30
0.0
  0
SPLINE
  5
14a
100
AcDbEntity
  8
0
 62
7
100
AcDbSpline
 70
8
 71
3
 72
8
 73
4
 74
0
 40
0
 40
0
 40
0
 40
0
 40
1
 40
1
 40
1
 40
1
 10
36.540000
 20
23.284913
 30
0.0
 10
36.639000
 20
23.281913
 30
0.0
 10
36.720000
 20
24.576000
 30
0.0
 10
36.720000
 20
26.160000
 30
0.0
  0
LWPOLYLINE
  5
14b
100
AcDbEntity
  8
0
 62
7
100
AcDbPolyline
 90
3
 70
0
 10
34.536192
 20
27.440168
 30
0.0
 10
32.879054
 20
25.840342
 30
0.0
 10
34.619527
 20
24.565080
 30
0.0
  0
LWPOLYLINE
  5
14c
100
AcDbEntity
  8
0
 62
7
100
AcDbPolyline
 90
1
 70
1
 10
36.720000
 20
26.160000
 30
0.0
  0
SPLINE
  5
14d
100
AcDbEntity
  8
0
 62
7
100
AcDbSpline
 70
8
 71
3
 72
8
 73
4
 74
0
 40
0
 40
0
 40
0
 40
0
 40
1
 40
1
 40
1
 40
1
 10
36.720000
 20
38.696895
 30
0.0
 10
36.720000
 20
41.166998
 30
0.0
 10
36.644873
 20
42.000000
 30
0.0
 10
36.422092
 20
42.000000
 30
0.0
  0
SPLINE
  5
14e
100
AcDbEntity
  8
0
 62
7
100
AcDbSpline
 70
8
 71
3
 72
8
 73
4
 74
0
 40
0
 40
0
 40
0
 40
0
 40
1
 40
1
 40
1
 40
1
 10
36.422092
 20
42.000000
 30
0.0
 10
36.258245
 20
42.000000
 30
0.0
 10
33.883032
 20
39.760748
 30
0.0
 10
31.143840
 20
37.023885
 30
0.0
  0
LWPOLYLINE
  5
14f
100
AcDbEntity
  8
0
 62
7
100
AcDbPolyline
 90
3
 70
0
 10
33.296998
 20
31.976895
 30
0.0
 10
36.720000
 20
35.393790
 30
0.0
 10
36.720000
 20
38.696895
 30
0.0
  0
SPLINE
  5
150
100
AcDbEntity
  8
0
 62
7
100
AcDbSpline
 70
8
 71
3
 72
8
 73
4
 74
0
 40
0
 40
0
 40
0
 40
0
 40
1
 40
1
 40
1
 40
1
 10
27.895738
 20
30.303885
 30
0.0
 10
28.848475
 20
29.344747
 30
0.0
 10
29.683339
 20
28.560000
 30
0.0
 10
29.750990
 20
28.560000
 30
0.0
  0
SPLINE
  5
151
100
AcDbEntity
  8
0
 62
7
100
AcDbSpline
 70
8
 71
3
 72
8
 73
4
 74
0
 40
0
 40
0
 40
0
 40
0
 40
1
 40
1
 40
1
 40
1
 10
29.750990
 20
28.560000
 30
0.0
 10
29.818648
 20
28.560000
 30
0.0
 10
31.414346
 20
30.097605
 30
0.0
 10
33.296998
 20
31.976895
 30
0.0
  0
LWPOLYLINE
  5
152
100
AcDbEntity
  8
0
 62
7
100
AcDbPolyline
 90
3
 70
0
 10
31.143840
 20
37.023885
 30
0.0
 10
26.163490
 20
32.047770
 30
0.0
 10
27.895738
 20
30.303885
 30
0.0
  0
LWPOLYLINE
  5
153
100
AcDbEntity
  8
0
 62
7
100
AcDbPolyline
 90
1
 70
1
 10
33.296998
 20
31.976895
 30
0.0
  0
SPLINE
  5
154
100
AcDbEntity
  8
0
 62
7
100
AcDbSpline
 70
8
 71
3
 72
8
 73
4
 74
0
 40
0
 40
0
 40
0
 40
0
 40
1
 40
1
 40
1
 40
1
 10
55.200000
 20
47.804407
 30
0.0
 10
55.200000
 20
49.804717
 30
0.0
 10
55.107134
 20
50.909070
 30
0.0
 10
54.929707
 20
51.018720
 30
0.0
  0
SPLINE
  5
155
100
AcDbEntity
  8
0
 62
7
100
AcDbSpline
 70
8
 71
3
 72
8
 73
4
 74
0
 40
0
 40
0
 40
0
 40
0
 40
1
 40
1
 40
1
 40
1
 10
54.929707
 20
51.018720
 30
0.0
 10
54.768428
 20
51.118402
 30
0.0
 10
51.670936
 20
48.192810
 30
0.0
 10
47.249707
 20
43.764945
 30
0.0
  0
LWPOLYLINE
  5
156
100
AcDbEntity
  8
0
 62
7
100
AcDbPolyline
 90
3
 70
0
 10
47.698594
 20
37.258575
 30
0.0
 10
55.200000
 20
44.757143
 30
0.0
 10
55.200000
 20
47.804407
 30
0.0
  0
SPLINE
  5
157
100
AcDbEntity
  8
0
 62
7
100
AcDbSpline
 70
8
 71
3
 72
8
 73
4
 74
0
 40
0
 40
0
 40
0
 40
0
 40
1
 40
1
 40
1
 40
1
 10
39.840000
 20
33.052058
 30
0.0
 10
39.840000
 20
31.241430
 30
0.0
 10
39.920366
 20
29.760000
 30
0.0
 10
40.018594
 20
29.760000
 30
0.0
  0
SPLINE
  5
158
100
AcDbEntity
  8
0
 62
7
100
AcDbSpline
 70
8
 71
3
 72
8
 73
4
 74
0
 40
0
 40
0
 40
0
 40
0
 40
1
 40
1
 40
1
 40
1
 10
40.018594
 20
29.760000
 30
0.0
 10
40.116820
 20
29.760000
 30
0.0
 10
43.572820
 20
33.134355
 30
0.0
 10
47.698594
 20
37.258575
 30
0.0
  0
LWPOLYLINE
  5
159
100
AcDbEntity
  8
0
 62
7
100
AcDbPolyline
 90
3
 70
0
 10
47.249707
 20
43.764945
 30
0.0
 10
39.840000
 20
36.344122
 30
0.0
 10
39.840000
 20
33.052058
 30
0.0
  0
SPLINE
  5
15a
100
AcDbEntity
  8
0
 62
7
100
AcDbSpline
 70
8
 71
3
 72
8
 73
4
 74
0
 40
0
 40
0
 40
0
 40
0
 40
1
 40
1
 40
1
 40
1
 10
73.294322
 20
30.139628
 30
0.0
 10
73.374446
 20
30.348428
 30
0.0
 10
73.440000
 20
31.942103
 30
0.0
 10
73.440000
 20
33.681128
 30
0.0
  0
LWPOLYLINE
  5
15b
100
AcDbEntity
  8
0
 62
7
100
AcDbPolyline
 90
1
 70
1
 10
47.698594
 20
37.258575
 30
0.0
  0
SPLINE
  5
15c
100
AcDbEntity
  8
0
 62
7
100
AcDbSpline
 70
8
 71
3
 72
8
 73
4
 74
0
 40
0
 40
0
 40
0
 40
0
 40
1
 40
1
 40
1
 40
1
 10
66.263726
 20
44.016285
 30
0.0
 10
61.091914
 20
49.185945
 30
0.0
 10
58.980274
 20
51.148432
 30
0.0
 10
58.703726
 20
51.042315
 30
0.0
  0
SPLINE
  5
15d
100
AcDbEntity
  8
0
 62
7
100
AcDbSpline
 70
8
 71
3
 72
8
 73
4
 74
0
 40
0
 40
0
 40
0
 40
0
 40
1
 40
1
 40
1
 40
1
 10
58.703726
 20
51.042315
 30
0.0
 10
58.376186
 20
50.916623
 30
0.0
 10
58.320000
 20
50.378797
 30
0.0
 10
58.320000
 20
47.369153
 30
0.0
  0
LWPOLYLINE
  5
15e
100
AcDbEntity
  8
0
 62
7
100
AcDbPolyline
 90
3
 70
0
 10
73.440000
 20
33.681128
 30
0.0
 10
73.440000
 20
36.843000
 30
0.0
 10
66.263726
 20
44.016285
 30
0.0
  0
SPLINE
  5
15f
100
AcDbEntity
  8
0
 62
7
100
AcDbSpline
 70
8
 71
3
 72
8
 73
4
 74
0
 40
0
 40
0
 40
0
 40
0
 40
1
 40
1
 40
1
 40
1
 10
65.338560
 20
36.801623
 30
0.0
 10
69.198766
 20
32.928727
 30
0.0
 10
72.535212
 20
29.760000
 30
0.0
 10
72.752882
 20
29.760000
 30
0.0
  0
SPLINE
  5
160
100
AcDbEntity
  8
0
 62
7
100
AcDbSpline
 70
8
 71
3
 72
8
 73
4
 74
0
 40
0
 40
0
 40
0
 40
0
 40
1
 40
1
 40
1
 40
1
 10
72.752882
 20
29.760000
 30
0.0
 10
72.970552
 20
29.760000
 30
0.0
 10
73.214201
 20
29.930835
 30
0.0
 10
73.294322
 20
30.139628
 30
0.0
  0
LWPOLYLINE
  5
161
100
AcDbEntity
  8
0
 62
7
100
AcDbPolyline
 90
3
 70
0
 10
58.320000
 20
47.369153
 30
0.0
 10
58.320000
 20
43.843238
 30
0.0
 10
65.338560
 20
36.801623
 30
0.0
  0
LWPOLYLINE
  5
162
100
AcDbEntity
  8
0
 62
7
100
AcDbPolyline
 90
1
 70
1
 10
73.294322
 20
30.139628
 30
0.0
  0
SPLINE
  5
163
100
AcDbEntity
  8
0
 62
7
100
AcDbSpline
 70
8
 71
3
 72
8
 73
4
 74
0
 40
0
 40
0
 40
0
 40
0
 40
1
 40
1
 40
1
 40
1
 10
84.531150
 20
48.063900
 30
0.0
 10
79.090080
 20
53.513678
 30
0.0
 10
77.284080
 20
55.186500
 30
0.0
 10
76.971150
 20
55.066418
 30
0.0
  0
SPLINE
  5
164
100
AcDbEntity
  8
0
 62
7
100
AcDbSpline
 70
8
 71
3
 72
8
 73
4
 74
0
 40
0
 40
0
 40
0
 40
0
 40
1
 40
1
 40
1
 40
1
 10
76.971150
 20
55.066418
 30
0.0
 10
76.608810
 20
54.927375
 30
0.0
 10
76.560000
 20
54.490785
 30
0.0
 10
76.560000
 20
51.388972
 30
0.0
  0
LWPOLYLINE
  5
165
100
AcDbEntity
  8
0
 62
7
100
AcDbPolyline
 90
3
 70
0
 10
91.680000
 20
37.521195
 30
0.0
 10
91.680000
 20
40.903613
 30
0.0
 10
84.531150
 20
48.063900
 30
0.0
  0
SPLINE
  5
166
100
AcDbEntity
  8
0
 62
7
100
AcDbSpline
 70
8
 71
3
 72
8
 73
4
 74
0
 40
0
 40
0
 40
0
 40
0
 40
1
 40
1
 40
1
 40
1
 10
83.748360
 20
40.695607
 30
0.0
 10
89.935215
 20
34.521375
 30
0.0
 10
90.988507
 20
33.564885
 30
0.0
 10
91.308360
 20
33.830340
 30
0.0
  0
SPLINE
  5
167
100
AcDbEntity
  8
0
 62
7
100
AcDbSpline
 70
8
 71
3
 72
8
 73
4
 74
0
 40
0
 40
0
 40
0
 40
0
 40
1
 40
1
 40
1
 40
1
 10
91.308360
 20
33.830340
 30
0.0
 10
91.611712
 20
34.082100
 30
0.0
 10
91.680000
 20
34.760310
 30
0.0
 10
91.680000
 20
37.521195
 30
0.0
  0
LWPOLYLINE
  5
168
100
AcDbEntity
  8
0
 62
7
100
AcDbPolyline
 90
3
 70
0
 10
76.560000
 20
51.388972
 30
0.0
 10
76.560000
 20
47.869305
 30
0.0
 10
83.748360
 20
40.695607
 30
0.0
  0
LWPOLYLINE
  5
169
100
AcDbEntity
  8
0
 62
7
100
AcDbPolyline
 90
1
 70
1
 10
91.680000
 20
37.521195
 30
0.0
  0
SPLINE
  5
16a
100
AcDbEntity
  8
0
 62
7
100
AcDbSpline
 70
8
 71
3
 72
8
 73
4
 74
0
 40
0
 40
0
 40
0
 40
0
 40
1
 40
1
 40
1
 40
1
 10
110.017507
 20
51.516150
 30
0.0
 10
110.067532
 20
53.242568
 30
0.0
 10
110.015258
 20
54.804698
 30
0.0
 10
109.901160
 20
54.987548
 30
0.0
  0
SPLINE
  5
16b
100
AcDbEntity
  8
0
 62
7
100
AcDbSpline
 70
8
 71
3
 72
8
 73
4
 74
0
 40
0
 40
0
 40
0
 40
0
 40
1
 40
1
 40
1
 40
1
 10
109.901160
 20
54.987548
 30
0.0
 10
109.746645
 20
55.235370
 30
0.0
 10
107.798265
 20
53.425050
 30
0.0
 10
102.246945
 20
47.875680
 30
0.0
  0
LWPOLYLINE
  5
16c
100
AcDbEntity
  8
0
 62
7
100
AcDbPolyline
 90
3
 70
0
 10
102.663292
 20
41.110770
 30
0.0
 10
109.926578
 20
48.377190
 30
0.0
 10
110.017507
 20
51.516150
 30
0.0
  0
SPLINE
  5
16d
100
AcDbEntity
  8
0
 62
7
100
AcDbSpline
 70
8
 71
3
 72
8
 73
4
 74
0
 40
0
 40
0
 40
0
 40
0
 40
1
 40
1
 40
1
 40
1
 10
94.800000
 20
37.135680
 30
0.0
 10
94.800000
 20
34.657980
 30
0.0
 10
94.874475
 20
33.840540
 30
0.0
 10
95.100000
 20
33.842168
 30
0.0
  0
SPLINE
  5
16e
100
AcDbEntity
  8
0
 62
7
100
AcDbSpline
 70
8
 71
3
 72
8
 73
4
 74
0
 40
0
 40
0
 40
0
 40
0
 40
1
 40
1
 40
1
 40
1
 10
95.100000
 20
33.842168
 30
0.0
 10
95.265000
 20
33.843668
 30
0.0
 10
98.668478
 20
37.114230
 30
0.0
 10
102.663293
 20
41.110770
 30
0.0
  0
LWPOLYLINE
  5
16f
100
AcDbEntity
  8
0
 62
7
100
AcDbPolyline
 90
3
 70
0
 10
102.246945
 20
47.875680
 30
0.0
 10
94.800000
 20
40.431360
 30
0.0
 10
94.800000
 20
37.135680
 30
0.0
  0
SPLINE
  5
170
100
AcDbEntity
  8
0
 62
7
100
AcDbSpline
 70
8
 71
3
 72
8
 73
4
 74
0
 40
0
 40
0
 40
0
 40
0
 40
1
 40
1
 40
1
 40
1
 10
36.720000
 20
51.898395
 30
0.0
 10
36.720000
 20
53.714280
 30
0.0
 10
36.636670
 20
55.200000
 30
0.0
 10
36.534820
 20
55.200000
 30
0.0
  0
SPLINE
  5
171
100
AcDbEntity
  8
0
 62
7
100
AcDbSpline
 70
8
 71
3
 72
8
 73
4
 74
0
 40
0
 40
0
 40
0
 40
0
 40
1
 40
1
 40
1
 40
1
 10
36.534820
 20
55.200000
 30
0.0
 10
36.432972
 20
55.200000
 30
0.0
 10
33.030972
 20
51.874973
 30
0.0
 10
28.974820
 20
47.811053
 30
0.0
  0
LWPOLYLINE
  5
172
100
AcDbEntity
  8
0
 62
7
100
AcDbPolyline
 90
1
 70
1
 10
102.663293
 20
41.110770
 30
0.0
  0
SPLINE
  5
173
100
AcDbEntity
  8
0
 62
7
100
AcDbSpline
 70
8
 71
3
 72
8
 73
4
 74
0
 40
0
 40
0
 40
0
 40
0
 40
1
 40
1
 40
1
 40
1
 10
21.600000
 20
39.099608
 30
0.0
 10
21.600000
 20
37.951200
 30
0.0
 10
21.718471
 20
37.614360
 30
0.0
 10
22.500000
 20
36.540698
 30
0.0
  0
LWPOLYLINE
  5
174
100
AcDbEntity
  8
0
 62
7
100
AcDbPolyline
 90
3
 70
0
 10
28.974820
 20
47.811053
 30
0.0
 10
21.600000
 20
40.422105
 30
0.0
 10
21.600000
 20
39.099608
 30
0.0
  0
SPLINE
  5
175
100
AcDbEntity
  8
0
 62
7
100
AcDbSpline
 70
8
 71
3
 72
8
 73
4
 74
0
 40
0
 40
0
 40
0
 40
0
 40
1
 40
1
 40
1
 40
1
 10
55.147504
 20
60.855331
 30
0.0
 10
55.099174
 20
63.078204
 30
0.0
 10
54.997940
 20
63.960000
 30
0.0
 10
54.791076
 20
63.960000
 30
0.0
  0
SPLINE
  5
176
100
AcDbEntity
  8
0
 62
7
100
AcDbSpline
 70
8
 71
3
 72
8
 73
4
 74
0
 40
0
 40
0
 40
0
 40
0
 40
1
 40
1
 40
1
 40
1
 10
54.791076
 20
63.960000
 30
0.0
 10
54.527062
 20
63.960000
 30
0.0
 10
47.934146
 20
57.527186
 30
0.0
 10
42.180000
 20
51.655170
 30
0.0
  0
LWPOLYLINE
  5
177
100
AcDbEntity
  8
0
 62
7
100
AcDbPolyline
 90
5
 70
0
 10
22.500000
 20
36.540698
 30
0.0
 10
23.400000
 20
35.304285
 30
0.0
 10
30.060000
 20
41.950530
 30
0.0
 10
36.720000
 20
48.596790
 30
0.0
 10
36.720000
 20
51.898395
 30
0.0
  0
SPLINE
  5
178
100
AcDbEntity
  8
0
 62
7
100
AcDbSpline
 70
8
 71
3
 72
8
 73
4
 74
0
 40
0
 40
0
 40
0
 40
0
 40
1
 40
1
 40
1
 40
1
 10
39.840000
 20
46.153620
 30
0.0
 10
39.840000
 20
44.441130
 30
0.0
 10
39.917198
 20
42.962805
 30
0.0
 10
40.011552
 20
42.868448
 30
0.0
  0
SPLINE
  5
179
100
AcDbEntity
  8
0
 62
7
100
AcDbSpline
 70
8
 71
3
 72
8
 73
4
 74
0
 40
0
 40
0
 40
0
 40
0
 40
1
 40
1
 40
1
 40
1
 10
40.011552
 20
42.868448
 30
0.0
 10
40.105904
 20
42.774098
 30
0.0
 10
43.565280
 20
46.083998
 30
0.0
 10
47.699054
 20
50.223780
 30
0.0
  0
LWPOLYLINE
  5
17a
100
AcDbEntity
  8
0
 62
7
100
AcDbPolyline
 90
3
 70
0
 10
42.180000
 20
51.655170
 30
0.0
 10
39.840000
 20
49.267237
 30
0.0
 10
39.840000
 20
46.153620
 30
0.0
  0
SPLINE
  5
17b
100
AcDbEntity
  8
0
 62
7
100
AcDbSpline
 70
8
 71
3
 72
8
 73
4
 74
0
 40
0
 40
0
 40
0
 40
0
 40
1
 40
1
 40
1
 40
1
 10
73.152000
 20
43.008000
 30
0.0
 10
73.347648
 20
43.203645
 30
0.0
 10
73.440000
 20
44.338342
 30
0.0
 10
73.440000
 20
46.546522
 30
0.0
  0
LWPOLYLINE
  5
17c
100
AcDbEntity
  8
0
 62
7
100
AcDbPolyline
 90
3
 70
0
 10
47.699054
 20
50.223780
 30
0.0
 10
55.215007
 20
57.750664
 30
0.0
 10
55.147504
 20
60.855331
 30
0.0
  0
SPLINE
  5
17d
100
AcDbEntity
  8
0
 62
7
100
AcDbSpline
 70
8
 71
3
 72
8
 73
4
 74
0
 40
0
 40
0
 40
0
 40
0
 40
1
 40
1
 40
1
 40
1
 10
66.301500
 20
56.938522
 30
0.0
 10
62.361804
 20
60.879862
 30
0.0
 10
58.974122
 20
64.080000
 30
0.0
 10
58.741500
 20
64.080000
 30
0.0
  0
SPLINE
  5
17e
100
AcDbEntity
  8
0
 62
7
100
AcDbSpline
 70
8
 71
3
 72
8
 73
4
 74
0
 40
0
 40
0
 40
0
 40
0
 40
1
 40
1
 40
1
 40
1
 10
58.741500
 20
64.080000
 30
0.0
 10
58.358424
 20
64.080000
 30
0.0
 10
58.320000
 20
63.755138
 30
0.0
 10
58.320000
 20
60.516466
 30
0.0
  0
LWPOLYLINE
  5
17f
100
AcDbEntity
  8
0
 62
7
100
AcDbPolyline
 90
3
 70
0
 10
73.440000
 20
46.546522
 30
0.0
 10
73.440000
 20
49.797045
 30
0.0
 10
66.301500
 20
56.938522
 30
0.0
  0
SPLINE
  5
180
100
AcDbEntity
  8
0
 62
7
100
AcDbSpline
 70
8
 71
3
 72
8
 73
4
 74
0
 40
0
 40
0
 40
0
 40
0
 40
1
 40
1
 40
1
 40
1
 10
65.450270
 20
49.836465
 30
0.0
 10
69.371918
 20
45.922410
 30
0.0
 10
72.644318
 20
42.720000
 30
0.0
 10
72.722270
 20
42.720000
 30
0.0
  0
SPLINE
  5
181
100
AcDbEntity
  8
0
 62
7
100
AcDbSpline
 70
8
 71
3
 72
8
 73
4
 74
0
 40
0
 40
0
 40
0
 40
0
 40
1
 40
1
 40
1
 40
1
 10
72.722270
 20
42.720000
 30
0.0
 10
72.800220
 20
42.720000
 30
0.0
 10
72.993600
 20
42.849600
 30
0.0
 10
73.152000
 20
43.008000
 30
0.0
  0
LWPOLYLINE
  5
182
100
AcDbEntity
  8
0
 62
7
100
AcDbPolyline
 90
3
 70
0
 10
58.320000
 20
60.516466
 30
0.0
 10
58.320000
 20
56.952930
 30
0.0
 10
65.450270
 20
49.836465
 30
0.0
  0
SPLINE
  5
183
100
AcDbEntity
  8
0
 62
7
100
AcDbSpline
 70
8
 71
3
 72
8
 73
4
 74
0
 40
0
 40
0
 40
0
 40
0
 40
1
 40
1
 40
1
 40
1
 10
116.466810
 20
49.440000
 30
0.0
 10
116.932838
 20
50.694000
 30
0.0
 10
117.488108
 20
52.314000
 30
0.0
 10
117.700748
 20
53.040000
 30
0.0
  0
LWPOLYLINE
  5
184
100
AcDbEntity
  8
0
 62
7
100
AcDbPolyline
 90
1
 70
1
 10
73.152000
 20
43.008000
 30
0.0
  0
SPLINE
  5
185
100
AcDbEntity
  8
0
 62
7
100
AcDbSpline
 70
8
 71
3
 72
8
 73
4
 74
0
 40
0
 40
0
 40
0
 40
0
 40
1
 40
1
 40
1
 40
1
 10
113.080110
 20
46.424138
 30
0.0
 10
113.036160
 20
44.766285
 30
0.0
 10
113.072610
 20
43.227638
 30
0.0
 10
113.161403
 20
43.004932
 30
0.0
  0
SPLINE
  5
186
100
AcDbEntity
  8
0
 62
7
100
AcDbSpline
 70
8
 71
3
 72
8
 73
4
 74
0
 40
0
 40
0
 40
0
 40
0
 40
1
 40
1
 40
1
 40
1
 10
113.161403
 20
43.004932
 30
0.0
 10
113.364855
 20
42.493808
 30
0.0
 10
115.247423
 20
46.158840
 30
0.0
 10
116.466810
 20
49.440000
 30
0.0
  0
LWPOLYLINE
  5
187
100
AcDbEntity
  8
0
 62
7
100
AcDbPolyline
 90
5
 70
0
 10
117.700748
 20
53.040000
 30
0.0
 10
118.087358
 20
54.360000
 30
0.0
 10
115.623675
 20
51.899205
 30
0.0
 10
113.160000
 20
49.438410
 30
0.0
 10
113.080110
 20
46.424138
 30
0.0
  0
LWPOLYLINE
  5
188
100
AcDbEntity
  8
0
 62
7
100
AcDbPolyline
 90
1
 70
1
 10
116.466810
 20
49.440000
 30
0.0
  0
SPLINE
  5
189
100
AcDbEntity
  8
0
 62
7
100
AcDbSpline
 70
8
 71
3
 72
8
 73
4
 74
0
 40
0
 40
0
 40
0
 40
0
 40
1
 40
1
 40
1
 40
1
 10
13.191799
 20
57.581638
 30
0.0
 10
14.777863
 20
50.335462
 30
0.0
 10
16.391904
 20
46.637977
 30
0.0
 10
17.876129
 20
46.850662
 30
0.0
  0
SPLINE
  5
18a
100
AcDbEntity
  8
0
 62
7
100
AcDbSpline
 70
8
 71
3
 72
8
 73
4
 74
0
 40
0
 40
0
 40
0
 40
0
 40
1
 40
1
 40
1
 40
1
 10
17.876129
 20
46.850662
 30
0.0
 10
18.332344
 20
46.916062
 30
0.0
 10
18.363731
 20
47.118900
 30
0.0
 10
18.425302
 20
50.400000
 30
0.0
  0
LWPOLYLINE
  5
18b
100
AcDbEntity
  8
0
 62
7
100
AcDbPolyline
 90
5
 70
0
 10
18.425303
 20
50.400000
 30
0.0
 10
18.490606
 20
53.880000
 30
0.0
 10
15.619952
 20
56.741640
 30
0.0
 10
12.749297
 20
59.603275
 30
0.0
 10
13.191799
 20
57.581638
 30
0.0
  0
LWPOLYLINE
  5
18c
100
AcDbEntity
  8
0
 62
7
100
AcDbPolyline
 90
1
 70
1
 10
18.425302
 20
50.400000
 30
0.0
  0
SPLINE
  5
18d
100
AcDbEntity
  8
0
 62
7
100
AcDbSpline
 70
8
 71
3
 72
8
 73
4
 74
0
 40
0
 40
0
 40
0
 40
0
 40
1
 40
1
 40
1
 40
1
 10
36.720000
 20
64.858548
 30
0.0
 10
36.720000
 20
66.674347
 30
0.0
 10
36.639643
 20
68.160000
 30
0.0
 10
36.541428
 20
68.160000
 30
0.0
  0
SPLINE
  5
18e
100
AcDbEntity
  8
0
 62
7
100
AcDbSpline
 70
8
 71
3
 72
8
 73
4
 74
0
 40
0
 40
0
 40
0
 40
0
 40
1
 40
1
 40
1
 40
1
 10
36.541428
 20
68.160000
 30
0.0
 10
36.443216
 20
68.160000
 30
0.0
 10
33.041215
 20
64.839652
 30
0.0
 10
28.981428
 20
60.781452
 30
0.0
  0
LWPOLYLINE
  5
18f
100
AcDbEntity
  8
0
 62
7
100
AcDbPolyline
 90
3
 70
0
 10
29.338572
 20
54.178545
 30
0.0
 10
36.720000
 20
61.557096
 30
0.0
 10
36.720000
 20
64.858548
 30
0.0
  0
SPLINE
  5
190
100
AcDbEntity
  8
0
 62
7
100
AcDbSpline
 70
8
 71
3
 72
8
 73
4
 74
0
 40
0
 40
0
 40
0
 40
0
 40
1
 40
1
 40
1
 40
1
 10
21.600000
 20
50.101455
 30
0.0
 10
21.600000
 20
48.285652
 30
0.0
 10
21.680357
 20
46.800000
 30
0.0
 10
21.778571
 20
46.800000
 30
0.0
  0
SPLINE
  5
191
100
AcDbEntity
  8
0
 62
7
100
AcDbSpline
 70
8
 71
3
 72
8
 73
4
 74
0
 40
0
 40
0
 40
0
 40
0
 40
1
 40
1
 40
1
 40
1
 10
21.778571
 20
46.800000
 30
0.0
 10
21.876785
 20
46.800000
 30
0.0
 10
25.278785
 20
50.120348
 30
0.0
 10
29.338572
 20
54.178545
 30
0.0
  0
LWPOLYLINE
  5
192
100
AcDbEntity
  8
0
 62
7
100
AcDbPolyline
 90
3
 70
0
 10
28.981428
 20
60.781452
 30
0.0
 10
21.600000
 20
53.402902
 30
0.0
 10
21.600000
 20
50.101455
 30
0.0
  0
LWPOLYLINE
  5
193
100
AcDbEntity
  8
0
 62
7
100
AcDbPolyline
 90
1
 70
1
 10
29.338572
 20
54.178545
 30
0.0
  0
SPLINE
  5
194
100
AcDbEntity
  8
0
 62
7
100
AcDbSpline
 70
8
 71
3
 72
8
 73
4
 74
0
 40
0
 40
0
 40
0
 40
0
 40
1
 40
1
 40
1
 40
1
 10
84.508297
 20
61.054783
 30
0.0
 10
79.333590
 20
66.225137
 30
0.0
 10
77.220277
 20
68.188428
 30
0.0
 10
76.943752
 20
68.082314
 30
0.0
  0
SPLINE
  5
195
100
AcDbEntity
  8
0
 62
7
100
AcDbSpline
 70
8
 71
3
 72
8
 73
4
 74
0
 40
0
 40
0
 40
0
 40
0
 40
1
 40
1
 40
1
 40
1
 10
76.943752
 20
68.082314
 30
0.0
 10
76.616437
 20
67.956713
 30
0.0
 10
76.560023
 20
67.421588
 30
0.0
 10
76.560023
 20
64.442504
 30
0.0
  0
LWPOLYLINE
  5
196
100
AcDbEntity
  8
0
 62
7
100
AcDbPolyline
 90
3
 70
0
 10
91.624545
 20
50.400000
 30
0.0
 10
91.689120
 20
53.880000
 30
0.0
 10
84.508297
 20
61.054783
 30
0.0
  0
SPLINE
  5
197
100
AcDbEntity
  8
0
 62
7
100
AcDbSpline
 70
8
 71
3
 72
8
 73
4
 74
0
 40
0
 40
0
 40
0
 40
0
 40
1
 40
1
 40
1
 40
1
 10
83.580022
 20
53.880713
 30
0.0
 10
88.620292
 20
48.805103
 30
0.0
 10
90.735390
 20
46.826783
 30
0.0
 10
91.080022
 20
46.865737
 30
0.0
  0
SPLINE
  5
198
100
AcDbEntity
  8
0
 62
7
100
AcDbSpline
 70
8
 71
3
 72
8
 73
4
 74
0
 40
0
 40
0
 40
0
 40
0
 40
1
 40
1
 40
1
 40
1
 10
91.080022
 20
46.865737
 30
0.0
 10
91.532093
 20
46.916813
 30
0.0
 10
91.563780
 20
47.122462
 30
0.0
 10
91.624567
 20
50.400000
 30
0.0
  0
LWPOLYLINE
  5
199
100
AcDbEntity
  8
0
 62
7
100
AcDbPolyline
 90
3
 70
0
 10
76.560023
 20
64.442504
 30
0.0
 10
76.560023
 20
60.949944
 30
0.0
 10
83.580022
 20
53.880713
 30
0.0
  0
LWPOLYLINE
  5
19a
100
AcDbEntity
  8
0
 62
7
100
AcDbPolyline
 90
1
 70
1
 10
91.624567
 20
50.400000
 30
0.0
  0
SPLINE
  5
19b
100
AcDbEntity
  8
0
 62
7
100
AcDbSpline
 70
8
 71
3
 72
8
 73
4
 74
0
 40
0
 40
0
 40
0
 40
0
 40
1
 40
1
 40
1
 40
1
 10
109.920000
 20
64.274770
 30
0.0
 10
110.042467
 20
67.137617
 30
0.0
 10
109.986375
 20
68.160000
 30
0.0
 10
109.706842
 20
68.160000
 30
0.0
  0
SPLINE
  5
19c
100
AcDbEntity
  8
0
 62
7
100
AcDbSpline
 70
8
 71
3
 72
8
 73
4
 74
0
 40
0
 40
0
 40
0
 40
0
 40
1
 40
1
 40
1
 40
1
 10
109.706842
 20
68.160000
 30
0.0
 10
109.620382
 20
68.160000
 30
0.0
 10
106.230975
 20
64.834972
 30
0.0
 10
102.174818
 20
60.771050
 30
0.0
  0
LWPOLYLINE
  5
19d
100
AcDbEntity
  8
0
 62
7
100
AcDbPolyline
 90
3
 70
0
 10
102.531413
 20
54.134768
 30
0.0
 10
109.800000
 20
61.469540
 30
0.0
 10
109.920000
 20
64.274770
 30
0.0
  0
SPLINE
  5
19e
100
AcDbEntity
  8
0
 62
7
100
AcDbSpline
 70
8
 71
3
 72
8
 73
4
 74
0
 40
0
 40
0
 40
0
 40
0
 40
1
 40
1
 40
1
 40
1
 10
94.800000
 20
50.091053
 30
0.0
 10
94.800000
 20
48.138435
 30
0.0
 10
94.894110
 20
46.800000
 30
0.0
 10
95.031413
 20
46.800000
 30
0.0
  0
SPLINE
  5
19f
100
AcDbEntity
  8
0
 62
7
100
AcDbSpline
 70
8
 71
3
 72
8
 73
4
 74
0
 40
0
 40
0
 40
0
 40
0
 40
1
 40
1
 40
1
 40
1
 10
95.031413
 20
46.800000
 30
0.0
 10
95.158688
 20
46.800000
 30
0.0
 10
98.533688
 20
50.100645
 30
0.0
 10
102.531413
 20
54.134768
 30
0.0
  0
LWPOLYLINE
  5
1a0
100
AcDbEntity
  8
0
 62
7
100
AcDbPolyline
 90
3
 70
0
 10
102.174818
 20
60.771050
 30
0.0
 10
94.800000
 20
53.382105
 30
0.0
 10
94.800000
 20
50.091053
 30
0.0
  0
SPLINE
  5
1a1
100
AcDbEntity
  8
0
 62
7
100
AcDbSpline
 70
8
 71
3
 72
8
 73
4
 74
0
 40
0
 40
0
 40
0
 40
0
 40
1
 40
1
 40
1
 40
1
 10
73.152000
 20
55.968000
 30
0.0
 10
73.347648
 20
56.163645
 30
0.0
 10
73.440000
 20
57.298344
 30
0.0
 10
73.440000
 20
59.506548
 30
0.0
  0
LWPOLYLINE
  5
1a2
100
AcDbEntity
  8
0
 62
7
100
AcDbPolyline
 90
1
 70
1
 10
102.531413
 20
54.134768
 30
0.0
  0
SPLINE
  5
1a3
100
AcDbEntity
  8
0
 62
7
100
AcDbSpline
 70
8
 71
3
 72
8
 73
4
 74
0
 40
0
 40
0
 40
0
 40
0
 40
1
 40
1
 40
1
 40
1
 10
66.203144
 20
69.996871
 30
0.0
 10
61.803850
 20
74.397938
 30
0.0
 10
58.839581
 20
77.188028
 30
0.0
 10
58.643144
 20
77.112648
 30
0.0
  0
SPLINE
  5
1a4
100
AcDbEntity
  8
0
 62
7
100
AcDbSpline
 70
8
 71
3
 72
8
 73
4
 74
0
 40
0
 40
0
 40
0
 40
0
 40
1
 40
1
 40
1
 40
1
 10
58.643144
 20
77.112648
 30
0.0
 10
58.392652
 20
77.016526
 30
0.0
 10
58.320000
 20
76.198855
 30
0.0
 10
58.320000
 20
73.475798
 30
0.0
  0
LWPOLYLINE
  5
1a5
100
AcDbEntity
  8
0
 62
7
100
AcDbPolyline
 90
3
 70
0
 10
73.440000
 20
59.506548
 30
0.0
 10
73.440000
 20
62.757096
 30
0.0
 10
66.203144
 20
69.996871
 30
0.0
  0
SPLINE
  5
1a6
100
AcDbEntity
  8
0
 62
7
100
AcDbSpline
 70
8
 71
3
 72
8
 73
4
 74
0
 40
0
 40
0
 40
0
 40
0
 40
1
 40
1
 40
1
 40
1
 10
65.458500
 20
62.821476
 30
0.0
 10
69.384674
 20
58.893664
 30
0.0
 10
72.657074
 20
55.680000
 30
0.0
 10
72.730500
 20
55.680000
 30
0.0
  0
SPLINE
  5
1a7
100
AcDbEntity
  8
0
 62
7
100
AcDbSpline
 70
8
 71
3
 72
8
 73
4
 74
0
 40
0
 40
0
 40
0
 40
0
 40
1
 40
1
 40
1
 40
1
 10
72.730500
 20
55.680000
 30
0.0
 10
72.803925
 20
55.680000
 30
0.0
 10
72.993600
 20
55.809600
 30
0.0
 10
73.152000
 20
55.968000
 30
0.0
  0
LWPOLYLINE
  5
1a8
100
AcDbEntity
  8
0
 62
7
100
AcDbPolyline
 90
3
 70
0
 10
58.320000
 20
73.475798
 30
0.0
 10
58.320000
 20
69.962952
 30
0.0
 10
65.458500
 20
62.821476
 30
0.0
  0
LWPOLYLINE
  5
1a9
100
AcDbEntity
  8
0
 62
7
100
AcDbPolyline
 90
1
 70
1
 10
73.152000
 20
55.968000
 30
0.0
  0
SPLINE
  5
1aa
100
AcDbEntity
  8
0
 62
7
100
AcDbSpline
 70
8
 71
3
 72
8
 73
4
 74
0
 40
0
 40
0
 40
0
 40
0
 40
1
 40
1
 40
1
 40
1
 10
55.196325
 20
73.688950
 30
0.0
 10
55.194375
 20
75.334027
 30
0.0
 10
55.091711
 20
76.839624
 30
0.0
 10
54.968342
 20
77.034720
 30
0.0
  0
SPLINE
  5
1ab
100
AcDbEntity
  8
0
 62
7
100
AcDbSpline
 70
8
 71
3
 72
8
 73
4
 74
0
 40
0
 40
0
 40
0
 40
0
 40
1
 40
1
 40
1
 40
1
 10
54.968342
 20
77.034720
 30
0.0
 10
54.792017
 20
77.313559
 30
0.0
 10
53.222875
 20
75.876002
 30
0.0
 10
47.633227
 20
70.314720
 30
0.0
  0
SPLINE
  5
1ac
100
AcDbEntity
  8
0
 62
7
100
AcDbSpline
 70
8
 71
3
 72
8
 73
4
 74
0
 40
0
 40
0
 40
0
 40
0
 40
1
 40
1
 40
1
 40
1
 10
47.633227
 20
70.314720
 30
0.0
 10
43.722285
 20
66.423624
 30
0.0
 10
40.368877
 20
62.948364
 30
0.0
 10
40.181210
 20
62.591918
 30
0.0
  0
SPLINE
  5
1ad
100
AcDbEntity
  8
0
 62
7
100
AcDbSpline
 70
8
 71
3
 72
8
 73
4
 74
0
 40
0
 40
0
 40
0
 40
0
 40
1
 40
1
 40
1
 40
1
 10
40.181210
 20
62.591918
 30
0.0
 10
39.719102
 20
61.714217
 30
0.0
 10
39.687811
 20
55.920000
 30
0.0
 10
40.145180
 20
55.920000
 30
0.0
  0
SPLINE
  5
1ae
100
AcDbEntity
  8
0
 62
7
100
AcDbSpline
 70
8
 71
3
 72
8
 73
4
 74
0
 40
0
 40
0
 40
0
 40
0
 40
1
 40
1
 40
1
 40
1
 10
40.145180
 20
55.920000
 30
0.0
 10
40.313028
 20
55.920000
 30
0.0
 10
43.769028
 20
59.245027
 30
0.0
 10
47.825180
 20
63.308950
 30
0.0
  0
LWPOLYLINE
  5
1af
100
AcDbEntity
  8
0
 62
7
100
AcDbPolyline
 90
3
 70
0
 10
47.825179
 20
63.308950
 30
0.0
 10
55.200000
 20
70.697896
 30
0.0
 10
55.196325
 20
73.688950
 30
0.0
  0
LWPOLYLINE
  5
1b0
100
AcDbEntity
  8
0
 62
7
100
AcDbPolyline
 90
1
 70
1
 10
47.825180
 20
63.308950
 30
0.0
  0
SPLINE
  5
1b1
100
AcDbEntity
  8
0
 62
7
100
AcDbSpline
 70
8
 71
3
 72
8
 73
4
 74
0
 40
0
 40
0
 40
0
 40
0
 40
1
 40
1
 40
1
 40
1
 10
119.785072
 20
64.886218
 30
0.0
 10
120.170963
 20
69.715130
 30
0.0
 10
120.399240
 20
69.653758
 30
0.0
 10
116.520000
 20
65.764020
 30
0.0
  0
LWPOLYLINE
  5
1b2
100
AcDbEntity
  8
0
 62
7
100
AcDbPolyline
 90
3
 70
0
 10
116.593928
 20
58.873814
 30
0.0
 10
119.540648
 20
61.827631
 30
0.0
 10
119.785072
 20
64.886218
 30
0.0
  0
SPLINE
  5
1b3
100
AcDbEntity
  8
0
 62
7
100
AcDbSpline
 70
8
 71
3
 72
8
 73
4
 74
0
 40
0
 40
0
 40
0
 40
0
 40
1
 40
1
 40
1
 40
1
 10
113.081407
 20
59.157463
 30
0.0
 10
113.018557
 20
56.569515
 30
0.0
 10
113.067457
 20
55.920000
 30
0.0
 10
113.325007
 20
55.920000
 30
0.0
  0
SPLINE
  5
1b4
100
AcDbEntity
  8
0
 62
7
100
AcDbSpline
 70
8
 71
3
 72
8
 73
4
 74
0
 40
0
 40
0
 40
0
 40
0
 40
1
 40
1
 40
1
 40
1
 10
113.325007
 20
55.920000
 30
0.0
 10
113.502210
 20
55.920000
 30
0.0
 10
114.973230
 20
57.249216
 30
0.0
 10
116.593928
 20
58.873814
 30
0.0
  0
LWPOLYLINE
  5
1b5
100
AcDbEntity
  8
0
 62
7
100
AcDbPolyline
 90
3
 70
0
 10
116.520000
 20
65.764020
 30
0.0
 10
113.160000
 20
62.394926
 30
0.0
 10
113.081407
 20
59.157463
 30
0.0
  0
LWPOLYLINE
  5
1b6
100
AcDbEntity
  8
0
 62
7
100
AcDbPolyline
 90
1
 70
1
 10
116.593928
 20
58.873814
 30
0.0
  0
SPLINE
  5
1b7
100
AcDbEntity
  8
0
 62
7
100
AcDbSpline
 70
8
 71
3
 72
8
 73
4
 74
0
 40
0
 40
0
 40
0
 40
0
 40
1
 40
1
 40
1
 40
1
 10
12.114386
 20
70.439386
 30
0.0
 10
12.017541
 20
69.018552
 30
0.0
 10
12.006306
 20
67.205455
 30
0.0
 10
12.089418
 20
66.410280
 30
0.0
  0
LWPOLYLINE
  5
1b8
100
AcDbEntity
  8
0
 62
7
100
AcDbPolyline
 90
5
 70
0
 10
18.425207
 20
63.363012
 30
0.0
 10
18.490413
 20
66.840000
 30
0.0
 10
15.390440
 20
69.931361
 30
0.0
 10
12.290465
 20
73.022722
 30
0.0
 10
12.114386
 20
70.439386
 30
0.0
  0
SPLINE
  5
1b9
100
AcDbEntity
  8
0
 62
7
100
AcDbSpline
 70
8
 71
3
 72
8
 73
4
 74
0
 40
0
 40
0
 40
0
 40
0
 40
1
 40
1
 40
1
 40
1
 10
14.909243
 20
62.350238
 30
0.0
 10
16.511873
 20
60.780300
 30
0.0
 10
17.734160
 20
59.765938
 30
0.0
 10
17.968978
 20
59.810996
 30
0.0
  0
SPLINE
  5
1ba
100
AcDbEntity
  8
0
 62
7
100
AcDbSpline
 70
8
 71
3
 72
8
 73
4
 74
0
 40
0
 40
0
 40
0
 40
0
 40
1
 40
1
 40
1
 40
1
 10
17.968978
 20
59.810996
 30
0.0
 10
18.305228
 20
59.875511
 30
0.0
 10
18.369134
 20
60.373064
 30
0.0
 10
18.425207
 20
63.363012
 30
0.0
  0
LWPOLYLINE
  5
1bb
100
AcDbEntity
  8
0
 62
7
100
AcDbPolyline
 90
3
 70
0
 10
12.089418
 20
66.410280
 30
0.0
 10
12.240531
 20
64.964508
 30
0.0
 10
14.909243
 20
62.350238
 30
0.0
  0
LWPOLYLINE
  5
1bc
100
AcDbEntity
  8
0
 62
7
100
AcDbPolyline
 90
1
 70
1
 10
18.425207
 20
63.363012
 30
0.0
  0
SPLINE
  5
1bd
100
AcDbEntity
  8
0
 62
7
100
AcDbSpline
 70
8
 71
3
 72
8
 73
4
 74
0
 40
0
 40
0
 40
0
 40
0
 40
1
 40
1
 40
1
 40
1
 10
36.720000
 20
77.818548
 30
0.0
 10
36.720000
 20
79.684832
 30
0.0
 10
36.623342
 20
81.120000
 30
0.0
 10
36.497647
 20
81.120000
 30
0.0
  0
SPLINE
  5
1be
100
AcDbEntity
  8
0
 62
7
100
AcDbSpline
 70
8
 71
3
 72
8
 73
4
 74
0
 40
0
 40
0
 40
0
 40
0
 40
1
 40
1
 40
1
 40
1
 10
36.497647
 20
81.120000
 30
0.0
 10
36.375352
 20
81.120000
 30
0.0
 10
32.973352
 20
77.815502
 30
0.0
 10
28.937648
 20
73.776670
 30
0.0
  0
LWPOLYLINE
  5
1bf
100
AcDbEntity
  8
0
 62
7
100
AcDbPolyline
 90
3
 70
0
 10
29.338572
 20
67.138548
 30
0.0
 10
36.720000
 20
74.517096
 30
0.0
 10
36.720000
 20
77.818548
 30
0.0
  0
SPLINE
  5
1c0
100
AcDbEntity
  8
0
 62
7
100
AcDbSpline
 70
8
 71
3
 72
8
 73
4
 74
0
 40
0
 40
0
 40
0
 40
0
 40
1
 40
1
 40
1
 40
1
 10
21.600000
 20
63.096670
 30
0.0
 10
21.600000
 20
61.261502
 30
0.0
 10
21.680357
 20
59.760000
 30
0.0
 10
21.778571
 20
59.760000
 30
0.0
  0
SPLINE
  5
1c1
100
AcDbEntity
  8
0
 62
7
100
AcDbSpline
 70
8
 71
3
 72
8
 73
4
 74
0
 40
0
 40
0
 40
0
 40
0
 40
1
 40
1
 40
1
 40
1
 10
21.778571
 20
59.760000
 30
0.0
 10
21.876785
 20
59.760000
 30
0.0
 10
25.278785
 20
63.080348
 30
0.0
 10
29.338572
 20
67.138548
 30
0.0
  0
LWPOLYLINE
  5
1c2
100
AcDbEntity
  8
0
 62
7
100
AcDbPolyline
 90
3
 70
0
 10
28.937648
 20
73.776670
 30
0.0
 10
21.600000
 20
66.433340
 30
0.0
 10
21.600000
 20
63.096670
 30
0.0
  0
LWPOLYLINE
  5
1c3
100
AcDbEntity
  8
0
 62
7
100
AcDbPolyline
 90
1
 70
1
 10
29.338572
 20
67.138548
 30
0.0
  0
SPLINE
  5
1c4
100
AcDbEntity
  8
0
 62
7
100
AcDbSpline
 70
8
 71
3
 72
8
 73
4
 74
0
 40
0
 40
0
 40
0
 40
0
 40
1
 40
1
 40
1
 40
1
 10
84.508297
 20
74.014783
 30
0.0
 10
79.333590
 20
79.185136
 30
0.0
 10
77.220277
 20
81.148428
 30
0.0
 10
76.943752
 20
81.042314
 30
0.0
  0
SPLINE
  5
1c5
100
AcDbEntity
  8
0
 62
7
100
AcDbSpline
 70
8
 71
3
 72
8
 73
4
 74
0
 40
0
 40
0
 40
0
 40
0
 40
1
 40
1
 40
1
 40
1
 10
76.943752
 20
81.042314
 30
0.0
 10
76.616910
 20
80.916895
 30
0.0
 10
76.560023
 20
80.387148
 30
0.0
 10
76.560023
 20
77.469007
 30
0.0
  0
LWPOLYLINE
  5
1c6
100
AcDbEntity
  8
0
 62
7
100
AcDbPolyline
 90
3
 70
0
 10
91.624545
 20
63.363012
 30
0.0
 10
91.689120
 20
66.840000
 30
0.0
 10
84.508297
 20
74.014783
 30
0.0
  0
SPLINE
  5
1c7
100
AcDbEntity
  8
0
 62
7
100
AcDbSpline
 70
8
 71
3
 72
8
 73
4
 74
0
 40
0
 40
0
 40
0
 40
0
 40
1
 40
1
 40
1
 40
1
 10
83.700022
 20
66.896984
 30
0.0
 10
87.767655
 20
62.825950
 30
0.0
 10
90.994935
 20
59.780064
 30
0.0
 10
91.200022
 20
59.818520
 30
0.0
  0
SPLINE
  5
1c8
100
AcDbEntity
  8
0
 62
7
100
AcDbSpline
 70
8
 71
3
 72
8
 73
4
 74
0
 40
0
 40
0
 40
0
 40
0
 40
1
 40
1
 40
1
 40
1
 10
91.200022
 20
59.818520
 30
0.0
 10
91.496745
 20
59.874155
 30
0.0
 10
91.571370
 20
60.497210
 30
0.0
 10
91.624567
 20
63.363012
 30
0.0
  0
LWPOLYLINE
  5
1c9
100
AcDbEntity
  8
0
 62
7
100
AcDbPolyline
 90
3
 70
0
 10
76.560023
 20
77.469007
 30
0.0
 10
76.560023
 20
74.042952
 30
0.0
 10
83.700022
 20
66.896984
 30
0.0
  0
LWPOLYLINE
  5
1ca
100
AcDbEntity
  8
0
 62
7
100
AcDbPolyline
 90
1
 70
1
 10
91.624567
 20
63.363012
 30
0.0
  0
SPLINE
  5
1cb
100
AcDbEntity
  8
0
 62
7
100
AcDbSpline
 70
8
 71
3
 72
8
 73
4
 74
0
 40
0
 40
0
 40
0
 40
0
 40
1
 40
1
 40
1
 40
1
 10
110.091000
 20
77.872486
 30
0.0
 10
110.018925
 20
79.548655
 30
0.0
 10
109.891725
 20
80.988274
 30
0.0
 10
109.808362
 20
81.071638
 30
0.0
  0
SPLINE
  5
1cc
100
AcDbEntity
  8
0
 62
7
100
AcDbSpline
 70
8
 71
3
 72
8
 73
4
 74
0
 40
0
 40
0
 40
0
 40
0
 40
1
 40
1
 40
1
 40
1
 10
109.808362
 20
81.071638
 30
0.0
 10
109.725000
 20
81.155002
 30
0.0
 10
106.314015
 20
77.875414
 30
0.0
 10
102.228397
 20
73.783666
 30
0.0
  0
LWPOLYLINE
  5
1cd
100
AcDbEntity
  8
0
 62
7
100
AcDbPolyline
 90
3
 70
0
 10
102.692460
 20
67.292452
 30
0.0
 10
110.222070
 20
74.824906
 30
0.0
 10
110.091000
 20
77.872486
 30
0.0
  0
SPLINE
  5
1ce
100
AcDbEntity
  8
0
 62
7
100
AcDbSpline
 70
8
 71
3
 72
8
 73
4
 74
0
 40
0
 40
0
 40
0
 40
0
 40
1
 40
1
 40
1
 40
1
 10
94.800000
 20
63.052060
 30
0.0
 10
94.800000
 20
61.241426
 30
0.0
 10
94.881645
 20
59.760000
 30
0.0
 10
94.981425
 20
59.760000
 30
0.0
  0
SPLINE
  5
1cf
100
AcDbEntity
  8
0
 62
7
100
AcDbSpline
 70
8
 71
3
 72
8
 73
4
 74
0
 40
0
 40
0
 40
0
 40
0
 40
1
 40
1
 40
1
 40
1
 10
94.981425
 20
59.760000
 30
0.0
 10
95.081213
 20
59.760000
 30
0.0
 10
98.551177
 20
63.149604
 30
0.0
 10
102.692460
 20
67.292452
 30
0.0
  0
LWPOLYLINE
  5
1d0
100
AcDbEntity
  8
0
 62
7
100
AcDbPolyline
 90
3
 70
0
 10
102.228397
 20
73.783666
 30
0.0
 10
94.800000
 20
66.344122
 30
0.0
 10
94.800000
 20
63.052060
 30
0.0
  0
LWPOLYLINE
  5
1d1
100
AcDbEntity
  8
0
 62
7
100
AcDbPolyline
 90
1
 70
1
 10
102.692460
 20
67.292452
 30
0.0
  0
SPLINE
  5
1d2
100
AcDbEntity
  8
0
 62
7
100
AcDbSpline
 70
8
 71
3
 72
8
 73
4
 74
0
 40
0
 40
0
 40
0
 40
0
 40
1
 40
1
 40
1
 40
1
 10
66.266652
 20
83.124422
 30
0.0
 10
62.056162
 20
87.334913
 30
0.0
 10
58.958386
 20
90.252910
 30
0.0
 10
58.766652
 20
90.189163
 30
0.0
  0
SPLINE
  5
1d3
100
AcDbEntity
  8
0
 62
7
100
AcDbSpline
 70
8
 71
3
 72
8
 73
4
 74
0
 40
0
 40
0
 40
0
 40
0
 40
1
 40
1
 40
1
 40
1
 10
58.766652
 20
90.189163
 30
0.0
 10
58.514626
 20
90.105370
 30
0.0
 10
58.424981
 20
89.262628
 30
0.0
 10
58.374262
 20
86.500279
 30
0.0
  0
LWPOLYLINE
  5
1d4
100
AcDbEntity
  8
0
 62
7
100
AcDbPolyline
 90
3
 70
0
 10
73.440000
 20
72.564924
 30
0.0
 10
73.440000
 20
75.951074
 30
0.0
 10
66.266652
 20
83.124422
 30
0.0
  0
SPLINE
  5
1d5
100
AcDbEntity
  8
0
 62
7
100
AcDbSpline
 70
8
 71
3
 72
8
 73
4
 74
0
 40
0
 40
0
 40
0
 40
0
 40
1
 40
1
 40
1
 40
1
 10
65.502627
 20
75.740956
 30
0.0
 10
71.694423
 20
69.562118
 30
0.0
 10
72.748505
 20
68.604883
 30
0.0
 10
73.068363
 20
68.870342
 30
0.0
  0
SPLINE
  5
1d6
100
AcDbEntity
  8
0
 62
7
100
AcDbSpline
 70
8
 71
3
 72
8
 73
4
 74
0
 40
0
 40
0
 40
0
 40
0
 40
1
 40
1
 40
1
 40
1
 10
73.068363
 20
68.870342
 30
0.0
 10
73.371744
 20
69.122126
 30
0.0
 10
73.440000
 20
69.800676
 30
0.0
 10
73.440000
 20
72.564924
 30
0.0
  0
LWPOLYLINE
  5
1d7
100
AcDbEntity
  8
0
 62
7
100
AcDbPolyline
 90
3
 70
0
 10
58.374262
 20
86.500279
 30
0.0
 10
58.308524
 20
82.920000
 30
0.0
 10
65.502627
 20
75.740956
 30
0.0
  0
LWPOLYLINE
  5
1d8
100
AcDbEntity
  8
0
 62
7
100
AcDbPolyline
 90
1
 70
1
 10
73.440000
 20
72.564924
 30
0.0
  0
SPLINE
  5
1d9
100
AcDbEntity
  8
0
 62
7
100
AcDbSpline
 70
8
 71
3
 72
8
 73
4
 74
0
 40
0
 40
0
 40
0
 40
0
 40
1
 40
1
 40
1
 40
1
 10
55.200000
 20
86.814785
 30
0.0
 10
55.200000
 20
88.846850
 30
0.0
 10
55.106179
 20
90.029657
 30
0.0
 10
54.936684
 20
90.134410
 30
0.0
  0
SPLINE
  5
1da
100
AcDbEntity
  8
0
 62
7
100
AcDbSpline
 70
8
 71
3
 72
8
 73
4
 74
0
 40
0
 40
0
 40
0
 40
0
 40
1
 40
1
 40
1
 40
1
 10
54.936684
 20
90.134410
 30
0.0
 10
54.784757
 20
90.228305
 30
0.0
 10
51.561280
 20
87.190164
 30
0.0
 10
47.316684
 20
82.952522
 30
0.0
  0
LWPOLYLINE
  5
1db
100
AcDbEntity
  8
0
 62
7
100
AcDbPolyline
 90
3
 70
0
 10
47.825179
 20
76.268950
 30
0.0
 10
55.200000
 20
83.657897
 30
0.0
 10
55.200000
 20
86.814785
 30
0.0
  0
SPLINE
  5
1dc
100
AcDbEntity
  8
0
 62
7
100
AcDbSpline
 70
8
 71
3
 72
8
 73
4
 74
0
 40
0
 40
0
 40
0
 40
0
 40
1
 40
1
 40
1
 40
1
 10
39.881861
 20
72.243948
 30
0.0
 10
39.819161
 20
69.544724
 30
0.0
 10
39.867611
 20
68.880000
 30
0.0
 10
40.127040
 20
68.880000
 30
0.0
  0
SPLINE
  5
1dd
100
AcDbEntity
  8
0
 62
7
100
AcDbSpline
 70
8
 71
3
 72
8
 73
4
 74
0
 40
0
 40
0
 40
0
 40
0
 40
1
 40
1
 40
1
 40
1
 10
40.127040
 20
68.880000
 30
0.0
 10
40.304866
 20
68.880000
 30
0.0
 10
43.769028
 20
72.205027
 30
0.0
 10
47.825180
 20
76.268950
 30
0.0
  0
LWPOLYLINE
  5
1de
100
AcDbEntity
  8
0
 62
7
100
AcDbPolyline
 90
3
 70
0
 10
47.316684
 20
82.952522
 30
0.0
 10
39.960000
 20
75.607898
 30
0.0
 10
39.881861
 20
72.243948
 30
0.0
  0
LWPOLYLINE
  5
1df
100
AcDbEntity
  8
0
 62
7
100
AcDbPolyline
 90
1
 70
1
 10
47.825180
 20
76.268950
 30
0.0
  0
SPLINE
  5
1e0
100
AcDbEntity
  8
0
 62
7
100
AcDbSpline
 70
8
 71
3
 72
8
 73
4
 74
0
 40
0
 40
0
 40
0
 40
0
 40
1
 40
1
 40
1
 40
1
 10
119.410702
 20
75.869736
 30
0.0
 10
119.321753
 20
76.447382
 30
0.0
 10
119.077478
 20
77.819556
 30
0.0
 10
118.867875
 20
78.919016
 30
0.0
  0
LWPOLYLINE
  5
1e1
100
AcDbEntity
  8
0
 62
7
100
AcDbPolyline
 90
3
 70
0
 10
116.609813
 20
71.849736
 30
0.0
 10
119.572418
 20
74.819474
 30
0.0
 10
119.410702
 20
75.869736
 30
0.0
  0
SPLINE
  5
1e2
100
AcDbEntity
  8
0
 62
7
100
AcDbSpline
 70
8
 71
3
 72
8
 73
4
 74
0
 40
0
 40
0
 40
0
 40
0
 40
1
 40
1
 40
1
 40
1
 10
116.098170
 20
78.559016
 30
0.0
 10
114.784447
 20
77.261556
 30
0.0
 10
113.561505
 20
75.858655
 30
0.0
 10
113.380530
 20
75.441456
 30
0.0
  0
SPLINE
  5
1e3
100
AcDbEntity
  8
0
 62
7
100
AcDbSpline
 70
8
 71
3
 72
8
 73
4
 74
0
 40
0
 40
0
 40
0
 40
0
 40
1
 40
1
 40
1
 40
1
 10
113.380530
 20
75.441456
 30
0.0
 10
112.944405
 20
74.436048
 30
0.0
 10
112.923232
 20
68.880000
 30
0.0
 10
113.355555
 20
68.880000
 30
0.0
  0
SPLINE
  5
1e4
100
AcDbEntity
  8
0
 62
7
100
AcDbSpline
 70
8
 71
3
 72
8
 73
4
 74
0
 40
0
 40
0
 40
0
 40
0
 40
1
 40
1
 40
1
 40
1
 10
113.355555
 20
68.880000
 30
0.0
 10
113.515972
 20
68.880000
 30
0.0
 10
114.980400
 20
70.216382
 30
0.0
 10
116.609835
 20
71.849736
 30
0.0
  0
LWPOLYLINE
  5
1e5
100
AcDbEntity
  8
0
 62
7
100
AcDbPolyline
 90
3
 70
0
 10
118.867875
 20
78.919016
 30
0.0
 10
118.486762
 20
80.918030
 30
0.0
 10
116.098170
 20
78.559016
 30
0.0
  0
LWPOLYLINE
  5
1e6
100
AcDbEntity
  8
0
 62
7
100
AcDbPolyline
 90
1
 70
1
 10
116.609835
 20
71.849736
 30
0.0
  0
SPLINE
  5
1e7
100
AcDbEntity
  8
0
 62
7
100
AcDbSpline
 70
8
 71
3
 72
8
 73
4
 74
0
 40
0
 40
0
 40
0
 40
0
 40
1
 40
1
 40
1
 40
1
 10
16.512181
 20
81.768068
 30
0.0
 10
15.422310
 20
82.863631
 30
0.0
 10
14.464933
 20
83.760000
 30
0.0
 10
14.384677
 20
83.760000
 30
0.0
  0
SPLINE
  5
1e8
100
AcDbEntity
  8
0
 62
7
100
AcDbSpline
 70
8
 71
3
 72
8
 73
4
 74
0
 40
0
 40
0
 40
0
 40
0
 40
1
 40
1
 40
1
 40
1
 10
14.384677
 20
83.760000
 30
0.0
 10
14.228072
 20
83.760000
 30
0.0
 10
13.325198
 20
80.187476
 30
0.0
 10
13.055408
 20
78.500300
 30
0.0
  0
LWPOLYLINE
  5
1e9
100
AcDbEntity
  8
0
 62
7
100
AcDbPolyline
 90
3
 70
0
 10
18.426883
 20
76.311065
 30
0.0
 10
18.493765
 20
79.776137
 30
0.0
 10
16.512181
 20
81.768068
 30
0.0
  0
SPLINE
  5
1ea
100
AcDbEntity
  8
0
 62
7
100
AcDbSpline
 70
8
 71
3
 72
8
 73
4
 74
0
 40
0
 40
0
 40
0
 40
0
 40
1
 40
1
 40
1
 40
1
 10
15.265893
 20
75.093004
 30
0.0
 10
16.571652
 20
73.781777
 30
0.0
 10
17.802000
 20
72.739786
 30
0.0
 10
18.000000
 20
72.777473
 30
0.0
  0
SPLINE
  5
1eb
100
AcDbEntity
  8
0
 62
7
100
AcDbSpline
 70
8
 71
3
 72
8
 73
4
 74
0
 40
0
 40
0
 40
0
 40
0
 40
1
 40
1
 40
1
 40
1
 10
18.000000
 20
72.777473
 30
0.0
 10
18.296450
 20
72.833902
 30
0.0
 10
18.371806
 20
73.457674
 30
0.0
 10
18.426883
 20
76.311065
 30
0.0
  0
LWPOLYLINE
  5
1ec
100
AcDbEntity
  8
0
 62
7
100
AcDbPolyline
 90
3
 70
0
 10
13.055408
 20
78.500300
 30
0.0
 10
12.891785
 20
77.477059
 30
0.0
 10
15.265893
 20
75.093004
 30
0.0
  0
LWPOLYLINE
  5
1ed
100
AcDbEntity
  8
0
 62
7
100
AcDbPolyline
 90
1
 70
1
 10
18.426883
 20
76.311065
 30
0.0
  0
SPLINE
  5
1ee
100
AcDbEntity
  8
0
 62
7
100
AcDbSpline
 70
8
 71
3
 72
8
 73
4
 74
0
 40
0
 40
0
 40
0
 40
0
 40
1
 40
1
 40
1
 40
1
 10
36.720000
 20
90.778548
 30
0.0
 10
36.720000
 20
93.290059
 30
0.0
 10
36.646960
 20
94.080000
 30
0.0
 10
36.414739
 20
94.080000
 30
0.0
  0
SPLINE
  5
1ef
100
AcDbEntity
  8
0
 62
7
100
AcDbSpline
 70
8
 71
3
 72
8
 73
4
 74
0
 40
0
 40
0
 40
0
 40
0
 40
1
 40
1
 40
1
 40
1
 10
36.414739
 20
94.080000
 30
0.0
 10
36.246844
 20
94.080000
 30
0.0
 10
32.844845
 20
90.808908
 30
0.0
 10
28.854740
 20
86.810908
 30
0.0
  0
LWPOLYLINE
  5
1f0
100
AcDbEntity
  8
0
 62
7
100
AcDbPolyline
 90
3
 70
0
 10
29.338572
 20
80.098548
 30
0.0
 10
36.720000
 20
87.477096
 30
0.0
 10
36.720000
 20
90.778548
 30
0.0
  0
SPLINE
  5
1f1
100
AcDbEntity
  8
0
 62
7
100
AcDbSpline
 70
8
 71
3
 72
8
 73
4
 74
0
 40
0
 40
0
 40
0
 40
0
 40
1
 40
1
 40
1
 40
1
 10
21.600000
 20
76.130909
 30
0.0
 10
21.600000
 20
74.254908
 30
0.0
 10
21.680357
 20
72.720000
 30
0.0
 10
21.778571
 20
72.720000
 30
0.0
  0
SPLINE
  5
1f2
100
AcDbEntity
  8
0
 62
7
100
AcDbSpline
 70
8
 71
3
 72
8
 73
4
 74
0
 40
0
 40
0
 40
0
 40
0
 40
1
 40
1
 40
1
 40
1
 10
21.778571
 20
72.720000
 30
0.0
 10
21.876785
 20
72.720000
 30
0.0
 10
25.278785
 20
76.040348
 30
0.0
 10
29.338572
 20
80.098548
 30
0.0
  0
LWPOLYLINE
  5
1f3
100
AcDbEntity
  8
0
 62
7
100
AcDbPolyline
 90
3
 70
0
 10
28.854740
 20
86.810908
 30
0.0
 10
21.600000
 20
79.541818
 30
0.0
 10
21.600000
 20
76.130909
 30
0.0
  0
LWPOLYLINE
  5
1f4
100
AcDbEntity
  8
0
 62
7
100
AcDbPolyline
 90
1
 70
1
 10
29.338572
 20
80.098548
 30
0.0
  0
SPLINE
  5
1f5
100
AcDbEntity
  8
0
 62
7
100
AcDbSpline
 70
8
 71
3
 72
8
 73
4
 74
0
 40
0
 40
0
 40
0
 40
0
 40
1
 40
1
 40
1
 40
1
 10
84.582750
 20
86.995051
 30
0.0
 10
80.026140
 20
91.552442
 30
0.0
 10
77.330520
 20
94.078812
 30
0.0
 10
77.076435
 20
94.030066
 30
0.0
  0
SPLINE
  5
1f6
100
AcDbEntity
  8
0
 62
7
100
AcDbSpline
 70
8
 71
3
 72
8
 73
4
 74
0
 40
0
 40
0
 40
0
 40
0
 40
1
 40
1
 40
1
 40
1
 10
77.076435
 20
94.030066
 30
0.0
 10
76.733400
 20
93.964253
 30
0.0
 10
76.670970
 20
93.486646
 30
0.0
 10
76.613077
 20
90.485386
 30
0.0
  0
LWPOLYLINE
  5
1f7
100
AcDbEntity
  8
0
 62
7
100
AcDbPolyline
 90
3
 70
0
 10
91.626315
 20
76.365000
 30
0.0
 10
91.692615
 20
79.883976
 30
0.0
 10
84.582750
 20
86.995051
 30
0.0
  0
SPLINE
  5
1f8
100
AcDbEntity
  8
0
 62
7
100
AcDbSpline
 70
8
 71
3
 72
8
 73
4
 74
0
 40
0
 40
0
 40
0
 40
0
 40
1
 40
1
 40
1
 40
1
 10
83.693077
 20
79.863890
 30
0.0
 10
87.764752
 20
75.788818
 30
0.0
 10
90.994890
 20
72.740062
 30
0.0
 10
91.199985
 20
72.778520
 30
0.0
  0
SPLINE
  5
1f9
100
AcDbEntity
  8
0
 62
7
100
AcDbSpline
 70
8
 71
3
 72
8
 73
4
 74
0
 40
0
 40
0
 40
0
 40
0
 40
1
 40
1
 40
1
 40
1
 10
91.199985
 20
72.778520
 30
0.0
 10
91.496887
 20
72.834192
 30
0.0
 10
91.571610
 20
73.462822
 30
0.0
 10
91.626300
 20
76.365000
 30
0.0
  0
LWPOLYLINE
  5
1fa
100
AcDbEntity
  8
0
 62
7
100
AcDbPolyline
 90
3
 70
0
 10
76.613077
 20
90.485386
 30
0.0
 10
76.546177
 20
87.016766
 30
0.0
 10
83.693077
 20
79.863890
 30
0.0
  0
LWPOLYLINE
  5
1fb
100
AcDbEntity
  8
0
 62
7
100
AcDbPolyline
 90
1
 70
1
 10
91.626300
 20
76.365000
 30
0.0
  0
SPLINE
  5
1fc
100
AcDbEntity
  8
0
 62
7
100
AcDbSpline
 70
8
 71
3
 72
8
 73
4
 74
0
 40
0
 40
0
 40
0
 40
0
 40
1
 40
1
 40
1
 40
1
 10
110.081632
 20
90.865804
 30
0.0
 10
109.933552
 20
94.469376
 30
0.0
 10
109.985325
 20
94.080000
 30
0.0
 10
109.654223
 20
94.080000
 30
0.0
  0
SPLINE
  5
1fd
100
AcDbEntity
  8
0
 62
7
100
AcDbSpline
 70
8
 71
3
 72
8
 73
4
 74
0
 40
0
 40
0
 40
0
 40
0
 40
1
 40
1
 40
1
 40
1
 10
109.654223
 20
94.080000
 30
0.0
 10
109.331408
 20
94.080000
 30
0.0
 10
95.435340
 20
80.178700
 30
0.0
 10
95.063363
 20
79.483646
 30
0.0
  0
SPLINE
  5
1fe
100
AcDbEntity
  8
0
 62
7
100
AcDbSpline
 70
8
 71
3
 72
8
 73
4
 74
0
 40
0
 40
0
 40
0
 40
0
 40
1
 40
1
 40
1
 40
1
 10
95.063363
 20
79.483646
 30
0.0
 10
94.767510
 20
78.930844
 30
0.0
 10
94.692270
 20
72.720000
 30
0.0
 10
94.981425
 20
72.720000
 30
0.0
  0
SPLINE
  5
1ff
100
AcDbEntity
  8
0
 62
7
100
AcDbSpline
 70
8
 71
3
 72
8
 73
4
 74
0
 40
0
 40
0
 40
0
 40
0
 40
1
 40
1
 40
1
 40
1
 10
94.981425
 20
72.720000
 30
0.0
 10
95.081213
 20
72.720000
 30
0.0
 10
98.548192
 20
76.106611
 30
0.0
 10
102.685815
 20
80.245804
 30
0.0
  0
LWPOLYLINE
  5
200
100
AcDbEntity
  8
0
 62
7
100
AcDbPolyline
 90
3
 70
0
 10
102.685815
 20
80.245804
 30
0.0
 10
110.208780
 20
87.771610
 30
0.0
 10
110.081632
 20
90.865804
 30
0.0
  0
LWPOLYLINE
  5
201
100
AcDbEntity
  8
0
 62
7
100
AcDbPolyline
 90
1
 70
1
 10
102.685815
 20
80.245804
 30
0.0
  0
SPLINE
  5
202
100
AcDbEntity
  8
0
 62
7
100
AcDbSpline
 70
8
 71
3
 72
8
 73
4
 74
0
 40
0
 40
0
 40
0
 40
0
 40
1
 40
1
 40
1
 40
1
 10
55.196325
 20
99.655003
 30
0.0
 10
55.194305
 20
101.274752
 30
0.0
 10
55.088040
 20
102.762000
 30
0.0
 10
54.960182
 20
102.960000
 30
0.0
  0
SPLINE
  5
203
100
AcDbEntity
  8
0
 62
7
100
AcDbSpline
 70
8
 71
3
 72
8
 73
4
 74
0
 40
0
 40
0
 40
0
 40
0
 40
1
 40
1
 40
1
 40
1
 10
54.960182
 20
102.960000
 30
0.0
 10
54.774715
 20
103.247213
 30
0.0
 10
53.222671
 20
101.814132
 30
0.0
 10
47.283856
 20
95.872061
 30
0.0
  0
LWPOLYLINE
  5
204
100
AcDbEntity
  8
0
 62
7
100
AcDbPolyline
 90
3
 70
0
 10
47.821054
 20
89.275003
 30
0.0
 10
55.200000
 20
96.710009
 30
0.0
 10
55.196325
 20
99.655003
 30
0.0
  0
SPLINE
  5
205
100
AcDbEntity
  8
0
 62
7
100
AcDbSpline
 70
8
 71
3
 72
8
 73
4
 74
0
 40
0
 40
0
 40
0
 40
0
 40
1
 40
1
 40
1
 40
1
 10
39.840000
 20
85.132060
 30
0.0
 10
39.840000
 20
82.652272
 30
0.0
 10
39.914280
 20
81.840000
 30
0.0
 10
40.141054
 20
81.840000
 30
0.0
  0
SPLINE
  5
206
100
AcDbEntity
  8
0
 62
7
100
AcDbSpline
 70
8
 71
3
 72
8
 73
4
 74
0
 40
0
 40
0
 40
0
 40
0
 40
1
 40
1
 40
1
 40
1
 10
40.141054
 20
81.840000
 30
0.0
 10
40.306632
 20
81.840000
 30
0.0
 10
43.762632
 20
85.185752
 30
0.0
 10
47.821054
 20
89.275003
 30
0.0
  0
LWPOLYLINE
  5
207
100
AcDbEntity
  8
0
 62
7
100
AcDbPolyline
 90
3
 70
0
 10
47.283856
 20
95.872061
 30
0.0
 10
39.840000
 20
88.424122
 30
0.0
 10
39.840000
 20
85.132060
 30
0.0
  0
LWPOLYLINE
  5
208
100
AcDbEntity
  8
0
 62
7
100
AcDbPolyline
 90
1
 70
1
 10
47.821054
 20
89.275003
 30
0.0
  0
SPLINE
  5
209
100
AcDbEntity
  8
0
 62
7
100
AcDbSpline
 70
8
 71
3
 72
8
 73
4
 74
0
 40
0
 40
0
 40
0
 40
0
 40
1
 40
1
 40
1
 40
1
 10
66.274040
 20
96.081038
 30
0.0
 10
61.059140
 20
101.304286
 30
0.0
 10
58.988400
 20
103.231555
 30
0.0
 10
58.707178
 20
103.123639
 30
0.0
  0
SPLINE
  5
20a
100
AcDbEntity
  8
0
 62
7
100
AcDbSpline
 70
8
 71
3
 72
8
 73
4
 74
0
 40
0
 40
0
 40
0
 40
0
 40
1
 40
1
 40
1
 40
1
 10
58.707178
 20
103.123639
 30
0.0
 10
58.375114
 20
102.996214
 30
0.0
 10
58.320000
 20
102.470292
 30
0.0
 10
58.320000
 20
99.429034
 30
0.0
  0
LWPOLYLINE
  5
20b
100
AcDbEntity
  8
0
 62
7
100
AcDbPolyline
 90
3
 70
0
 10
73.386864
 20
85.424930
 30
0.0
 10
73.453727
 20
88.889860
 30
0.0
 10
66.274040
 20
96.081038
 30
0.0
  0
SPLINE
  5
20c
100
AcDbEntity
  8
0
 62
7
100
AcDbSpline
 70
8
 71
3
 72
8
 73
4
 74
0
 40
0
 40
0
 40
0
 40
0
 40
1
 40
1
 40
1
 40
1
 10
65.340000
 20
88.855132
 30
0.0
 10
70.469220
 20
83.720164
 30
0.0
 10
72.489283
 20
81.845138
 30
0.0
 10
72.840000
 20
81.893633
 30
0.0
  0
SPLINE
  5
20d
100
AcDbEntity
  8
0
 62
7
100
AcDbSpline
 70
8
 71
3
 72
8
 73
4
 74
0
 40
0
 40
0
 40
0
 40
0
 40
1
 40
1
 40
1
 40
1
 10
72.840000
 20
81.893633
 30
0.0
 10
73.291178
 20
81.956018
 30
0.0
 10
73.324016
 20
82.168046
 30
0.0
 10
73.386864
 20
85.424930
 30
0.0
  0
LWPOLYLINE
  5
20e
100
AcDbEntity
  8
0
 62
7
100
AcDbPolyline
 90
3
 70
0
 10
58.320000
 20
99.429034
 30
0.0
 10
58.320000
 20
95.883000
 30
0.0
 10
65.340000
 20
88.855132
 30
0.0
  0
LWPOLYLINE
  5
20f
100
AcDbEntity
  8
0
 62
7
100
AcDbPolyline
 90
1
 70
1
 10
73.386864
 20
85.424930
 30
0.0
  0
SPLINE
  5
210
100
AcDbEntity
  8
0
 62
7
100
AcDbSpline
 70
8
 71
3
 72
8
 73
4
 74
0
 40
0
 40
0
 40
0
 40
0
 40
1
 40
1
 40
1
 40
1
 10
116.643510
 20
86.923920
 30
0.0
 10
116.339610
 20
87.757764
 30
0.0
 10
115.885568
 20
88.919474
 30
0.0
 10
115.634513
 20
89.505496
 30
0.0
  0
LWPOLYLINE
  5
211
100
AcDbEntity
  8
0
 62
7
100
AcDbPolyline
 90
3
 70
0
 10
115.424025
 20
83.623920
 30
0.0
 10
117.196043
 20
85.407840
 30
0.0
 10
116.643510
 20
86.923920
 30
0.0
  0
SPLINE
  5
212
100
AcDbEntity
  8
0
 62
7
100
AcDbSpline
 70
8
 71
3
 72
8
 73
4
 74
0
 40
0
 40
0
 40
0
 40
0
 40
1
 40
1
 40
1
 40
1
 10
113.075250
 20
85.554163
 30
0.0
 10
112.992105
 20
82.611679
 30
0.0
 10
113.071500
 20
81.840000
 30
0.0
 10
113.458470
 20
81.840000
 30
0.0
  0
SPLINE
  5
213
100
AcDbEntity
  8
0
 62
7
100
AcDbSpline
 70
8
 71
3
 72
8
 73
4
 74
0
 40
0
 40
0
 40
0
 40
0
 40
1
 40
1
 40
1
 40
1
 10
113.458470
 20
81.840000
 30
0.0
 10
113.564918
 20
81.840000
 30
0.0
 10
114.449423
 20
82.642764
 30
0.0
 10
115.424025
 20
83.623920
 30
0.0
  0
LWPOLYLINE
  5
214
100
AcDbEntity
  8
0
 62
7
100
AcDbPolyline
 90
5
 70
0
 10
115.634513
 20
89.505496
 30
0.0
 10
115.178055
 20
90.570994
 30
0.0
 10
114.169028
 20
89.562088
 30
0.0
 10
113.160000
 20
88.553182
 30
0.0
 10
113.075250
 20
85.554163
 30
0.0
  0
SPLINE
  5
215
100
AcDbEntity
  8
0
 62
7
100
AcDbSpline
 70
8
 71
3
 72
8
 73
4
 74
0
 40
0
 40
0
 40
0
 40
0
 40
1
 40
1
 40
1
 40
1
 10
18.100371
 20
85.825678
 30
0.0
 10
18.422111
 20
85.949140
 30
0.0
 10
18.480000
 20
86.495936
 30
0.0
 10
18.480000
 20
89.411513
 30
0.0
  0
SPLINE
  5
216
100
AcDbEntity
  8
0
 62
7
100
AcDbSpline
 70
8
 71
3
 72
8
 73
4
 74
0
 40
0
 40
0
 40
0
 40
0
 40
1
 40
1
 40
1
 40
1
 10
18.480000
 20
89.411513
 30
0.0
 10
18.480000
 20
91.303601
 30
0.0
 10
18.389798
 20
92.907420
 30
0.0
 10
18.279549
 20
92.975556
 30
0.0
  0
SPLINE
  5
217
100
AcDbEntity
  8
0
 62
7
100
AcDbSpline
 70
8
 71
3
 72
8
 73
4
 74
0
 40
0
 40
0
 40
0
 40
0
 40
1
 40
1
 40
1
 40
1
 10
18.279549
 20
92.975556
 30
0.0
 10
18.065592
 20
93.107788
 30
0.0
 10
17.675600
 20
92.387683
 30
0.0
 10
16.409060
 20
89.521766
 30
0.0
  0
LWPOLYLINE
  5
218
100
AcDbEntity
  8
0
 62
7
100
AcDbPolyline
 90
1
 70
1
 10
115.424025
 20
83.623920
 30
0.0
  0
SPLINE
  5
219
100
AcDbEntity
  8
0
 62
7
100
AcDbSpline
 70
8
 71
3
 72
8
 73
4
 74
0
 40
0
 40
0
 40
0
 40
0
 40
1
 40
1
 40
1
 40
1
 10
16.617152
 20
86.701766
 30
0.0
 10
17.168685
 20
86.139794
 30
0.0
 10
17.642620
 20
85.680000
 30
0.0
 10
17.670341
 20
85.680000
 30
0.0
  0
SPLINE
  5
21a
100
AcDbEntity
  8
0
 62
7
100
AcDbSpline
 70
8
 71
3
 72
8
 73
4
 74
0
 40
0
 40
0
 40
0
 40
0
 40
1
 40
1
 40
1
 40
1
 10
17.670341
 20
85.680000
 30
0.0
 10
17.698061
 20
85.680000
 30
0.0
 10
17.891575
 20
85.745550
 30
0.0
 10
18.100371
 20
85.825678
 30
0.0
  0
LWPOLYLINE
  5
21b
100
AcDbEntity
  8
0
 62
7
100
AcDbPolyline
 90
3
 70
0
 10
16.409060
 20
89.521766
 30
0.0
 10
15.614364
 20
87.723533
 30
0.0
 10
16.617152
 20
86.701766
 30
0.0
  0
LWPOLYLINE
  5
21c
100
AcDbEntity
  8
0
 62
7
100
AcDbPolyline
 90
1
 70
1
 10
18.100371
 20
85.825678
 30
0.0
  0
SPLINE
  5
21d
100
AcDbEntity
  8
0
 62
7
100
AcDbSpline
 70
8
 71
3
 72
8
 73
4
 74
0
 40
0
 40
0
 40
0
 40
0
 40
1
 40
1
 40
1
 40
1
 10
21.600000
 20
89.087237
 30
0.0
 10
21.600000
 20
85.897390
 30
0.0
 10
21.628740
 20
85.679057
 30
0.0
 10
22.020000
 20
85.896146
 30
0.0
  0
SPLINE
  5
21e
100
AcDbEntity
  8
0
 62
7
100
AcDbSpline
 70
8
 71
3
 72
8
 73
4
 74
0
 40
0
 40
0
 40
0
 40
0
 40
1
 40
1
 40
1
 40
1
 10
22.020000
 20
85.896146
 30
0.0
 10
22.251000
 20
86.024316
 30
0.0
 10
25.656094
 20
89.355130
 30
0.0
 10
29.586874
 20
93.297953
 30
0.0
  0
LWPOLYLINE
  5
21f
100
AcDbEntity
  8
0
 62
7
100
AcDbPolyline
 90
7
 70
0
 10
29.586874
 20
93.297953
 30
0.0
 10
36.733747
 20
100.466724
 30
0.0
 10
36.666874
 20
103.933363
 30
0.0
 10
36.600000
 20
107.400000
 30
0.0
 10
29.100000
 20
99.955680
 30
0.0
 10
21.600000
 20
92.511360
 30
0.0
 10
21.600000
 20
89.087237
 30
0.0
  0
LWPOLYLINE
  5
220
100
AcDbEntity
  8
0
 62
7
100
AcDbPolyline
 90
1
 70
1
 10
29.586874
 20
93.297953
 30
0.0
  0
SPLINE
  5
221
100
AcDbEntity
  8
0
 62
7
100
AcDbSpline
 70
8
 71
3
 72
8
 73
4
 74
0
 40
0
 40
0
 40
0
 40
0
 40
1
 40
1
 40
1
 40
1
 10
84.500962
 20
100.170088
 30
0.0
 10
78.286290
 20
106.384762
 30
0.0
 10
77.257680
 20
107.320267
 30
0.0
 10
76.934265
 20
107.051861
 30
0.0
  0
SPLINE
  5
222
100
AcDbEntity
  8
0
 62
7
100
AcDbSpline
 70
8
 71
3
 72
8
 73
4
 74
0
 40
0
 40
0
 40
0
 40
0
 40
1
 40
1
 40
1
 40
1
 10
76.934265
 20
107.051861
 30
0.0
 10
76.627552
 20
106.797304
 30
0.0
 10
76.559977
 20
106.129378
 30
0.0
 10
76.559977
 20
103.352088
 30
0.0
  0
LWPOLYLINE
  5
223
100
AcDbEntity
  8
0
 62
7
100
AcDbPolyline
 90
3
 70
0
 10
91.626697
 20
89.391854
 30
0.0
 10
91.693372
 20
92.977682
 30
0.0
 10
84.500962
 20
100.170088
 30
0.0
  0
SPLINE
  5
224
100
AcDbEntity
  8
0
 62
7
100
AcDbSpline
 70
8
 71
3
 72
8
 73
4
 74
0
 40
0
 40
0
 40
0
 40
0
 40
1
 40
1
 40
1
 40
1
 10
83.699977
 20
92.816983
 30
0.0
 10
87.767610
 20
88.745950
 30
0.0
 10
90.994890
 20
85.700064
 30
0.0
 10
91.199977
 20
85.738519
 30
0.0
  0
SPLINE
  5
225
100
AcDbEntity
  8
0
 62
7
100
AcDbSpline
 70
8
 71
3
 72
8
 73
4
 74
0
 40
0
 40
0
 40
0
 40
0
 40
1
 40
1
 40
1
 40
1
 10
91.199977
 20
85.738519
 30
0.0
 10
91.497292
 20
85.794275
 30
0.0
 10
91.571587
 20
86.430442
 30
0.0
 10
91.626675
 20
89.391854
 30
0.0
  0
LWPOLYLINE
  5
226
100
AcDbEntity
  8
0
 62
7
100
AcDbPolyline
 90
3
 70
0
 10
76.559977
 20
103.352088
 30
0.0
 10
76.559977
 20
99.962952
 30
0.0
 10
83.699977
 20
92.816983
 30
0.0
  0
SPLINE
  5
227
100
AcDbEntity
  8
0
 62
7
100
AcDbSpline
 70
8
 71
3
 72
8
 73
4
 74
0
 40
0
 40
0
 40
0
 40
0
 40
1
 40
1
 40
1
 40
1
 10
102.331125
 20
92.851116
 30
0.0
 10
106.273597
 20
96.795230
 30
0.0
 10
109.458922
 20
100.134576
 30
0.0
 10
109.409625
 20
100.271884
 30
0.0
  0
SPLINE
  5
228
100
AcDbEntity
  8
0
 62
7
100
AcDbSpline
 70
8
 71
3
 72
8
 73
4
 74
0
 40
0
 40
0
 40
0
 40
0
 40
1
 40
1
 40
1
 40
1
 10
109.409625
 20
100.271884
 30
0.0
 10
109.360350
 20
100.409192
 30
0.0
 10
108.674032
 20
101.343974
 30
0.0
 10
107.884515
 20
102.349178
 30
0.0
  0
LWPOLYLINE
  5
229
100
AcDbEntity
  8
0
 62
7
100
AcDbPolyline
 90
1
 70
1
 10
91.626675
 20
89.391854
 30
0.0
  0
SPLINE
  5
22a
100
AcDbEntity
  8
0
 62
7
100
AcDbSpline
 70
8
 71
3
 72
8
 73
4
 74
0
 40
0
 40
0
 40
0
 40
0
 40
1
 40
1
 40
1
 40
1
 10
94.800000
 20
89.090045
 30
0.0
 10
94.800000
 20
87.214520
 30
0.0
 10
94.881675
 20
85.680000
 30
0.0
 10
94.981500
 20
85.680000
 30
0.0
  0
SPLINE
  5
22b
100
AcDbEntity
  8
0
 62
7
100
AcDbSpline
 70
8
 71
3
 72
8
 73
4
 74
0
 40
0
 40
0
 40
0
 40
0
 40
1
 40
1
 40
1
 40
1
 10
94.981500
 20
85.680000
 30
0.0
 10
95.081325
 20
85.680000
 30
0.0
 10
98.388660
 20
88.907002
 30
0.0
 10
102.331125
 20
92.851116
 30
0.0
  0
LWPOLYLINE
  5
22c
100
AcDbEntity
  8
0
 62
7
100
AcDbPolyline
 90
5
 70
0
 10
107.884515
 20
102.349178
 30
0.0
 10
106.449022
 20
104.176822
 30
0.0
 10
100.624515
 20
98.338454
 30
0.0
 10
94.800000
 20
92.500090
 30
0.0
 10
94.800000
 20
89.090045
 30
0.0
  0
SPLINE
  5
22d
100
AcDbEntity
  8
0
 62
7
100
AcDbSpline
 70
8
 71
3
 72
8
 73
4
 74
0
 40
0
 40
0
 40
0
 40
0
 40
1
 40
1
 40
1
 40
1
 10
55.200000
 20
112.853654
 30
0.0
 10
55.200000
 20
114.847108
 30
0.0
 10
55.107064
 20
115.949109
 30
0.0
 10
54.929707
 20
116.058722
 30
0.0
  0
SPLINE
  5
22e
100
AcDbEntity
  8
0
 62
7
100
AcDbSpline
 70
8
 71
3
 72
8
 73
4
 74
0
 40
0
 40
0
 40
0
 40
0
 40
1
 40
1
 40
1
 40
1
 10
54.929707
 20
116.058722
 30
0.0
 10
54.768428
 20
116.158399
 30
0.0
 10
51.670936
 20
113.232814
 30
0.0
 10
47.249707
 20
108.804947
 30
0.0
  0
LWPOLYLINE
  5
22f
100
AcDbEntity
  8
0
 62
7
100
AcDbPolyline
 90
1
 70
1
 10
102.331125
 20
92.851116
 30
0.0
  0
SPLINE
  5
230
100
AcDbEntity
  8
0
 62
7
100
AcDbSpline
 70
8
 71
3
 72
8
 73
4
 74
0
 40
0
 40
0
 40
0
 40
0
 40
1
 40
1
 40
1
 40
1
 10
39.840000
 20
98.252062
 30
0.0
 10
39.840000
 20
96.529428
 30
0.0
 10
39.917198
 20
95.042804
 30
0.0
 10
40.011552
 20
94.948450
 30
0.0
  0
SPLINE
  5
231
100
AcDbEntity
  8
0
 62
7
100
AcDbSpline
 70
8
 71
3
 72
8
 73
4
 74
0
 40
0
 40
0
 40
0
 40
0
 40
1
 40
1
 40
1
 40
1
 10
40.011552
 20
94.948450
 30
0.0
 10
40.105903
 20
94.854096
 30
0.0
 10
43.561903
 20
98.160614
 30
0.0
 10
47.691552
 20
102.296266
 30
0.0
  0
LWPOLYLINE
  5
232
100
AcDbEntity
  8
0
 62
7
100
AcDbPolyline
 90
3
 70
0
 10
47.249707
 20
108.804947
 30
0.0
 10
39.840000
 20
101.384122
 30
0.0
 10
39.840000
 20
98.252062
 30
0.0
  0
SPLINE
  5
233
100
AcDbEntity
  8
0
 62
7
100
AcDbSpline
 70
8
 71
3
 72
8
 73
4
 74
0
 40
0
 40
0
 40
0
 40
0
 40
1
 40
1
 40
1
 40
1
 10
73.294322
 20
95.179630
 30
0.0
 10
73.374446
 20
95.388424
 30
0.0
 10
73.440000
 20
96.982100
 30
0.0
 10
73.440000
 20
98.721130
 30
0.0
  0
LWPOLYLINE
  5
234
100
AcDbEntity
  8
0
 62
7
100
AcDbPolyline
 90
3
 70
0
 10
47.691552
 20
102.296266
 30
0.0
 10
55.200000
 20
109.815635
 30
0.0
 10
55.200000
 20
112.853654
 30
0.0
  0
SPLINE
  5
235
100
AcDbEntity
  8
0
 62
7
100
AcDbSpline
 70
8
 71
3
 72
8
 73
4
 74
0
 40
0
 40
0
 40
0
 40
0
 40
1
 40
1
 40
1
 40
1
 10
66.263726
 20
109.056283
 30
0.0
 10
61.091914
 20
114.225942
 30
0.0
 10
58.980274
 20
116.188435
 30
0.0
 10
58.703726
 20
116.082315
 30
0.0
  0
SPLINE
  5
236
100
AcDbEntity
  8
0
 62
7
100
AcDbSpline
 70
8
 71
3
 72
8
 73
4
 74
0
 40
0
 40
0
 40
0
 40
0
 40
1
 40
1
 40
1
 40
1
 10
58.703726
 20
116.082315
 30
0.0
 10
58.376150
 20
115.956611
 30
0.0
 10
58.320000
 20
115.418351
 30
0.0
 10
58.320000
 20
112.403807
 30
0.0
  0
LWPOLYLINE
  5
237
100
AcDbEntity
  8
0
 62
7
100
AcDbPolyline
 90
3
 70
0
 10
73.440000
 20
98.721130
 30
0.0
 10
73.440000
 20
101.883000
 30
0.0
 10
66.263726
 20
109.056283
 30
0.0
  0
SPLINE
  5
238
100
AcDbEntity
  8
0
 62
7
100
AcDbSpline
 70
8
 71
3
 72
8
 73
4
 74
0
 40
0
 40
0
 40
0
 40
0
 40
1
 40
1
 40
1
 40
1
 10
65.331694
 20
101.836274
 30
0.0
 10
69.188126
 20
97.966322
 30
0.0
 10
72.524570
 20
94.800000
 30
0.0
 10
72.746016
 20
94.800000
 30
0.0
  0
SPLINE
  5
239
100
AcDbEntity
  8
0
 62
7
100
AcDbSpline
 70
8
 71
3
 72
8
 73
4
 74
0
 40
0
 40
0
 40
0
 40
0
 40
1
 40
1
 40
1
 40
1
 10
72.746016
 20
94.800000
 30
0.0
 10
72.967462
 20
94.800000
 30
0.0
 10
73.214201
 20
94.970832
 30
0.0
 10
73.294322
 20
95.179630
 30
0.0
  0
LWPOLYLINE
  5
23a
100
AcDbEntity
  8
0
 62
7
100
AcDbPolyline
 90
3
 70
0
 10
58.320000
 20
112.403807
 30
0.0
 10
58.320000
 20
108.872549
 30
0.0
 10
65.331694
 20
101.836274
 30
0.0
  0
LWPOLYLINE
  5
23b
100
AcDbEntity
  8
0
 62
7
100
AcDbPolyline
 90
1
 70
1
 10
73.294322
 20
95.179630
 30
0.0
  0
SPLINE
  5
23c
100
AcDbEntity
  8
0
 62
7
100
AcDbSpline
 70
8
 71
3
 72
8
 73
4
 74
0
 40
0
 40
0
 40
0
 40
0
 40
1
 40
1
 40
1
 40
1
 10
84.507180
 20
113.127912
 30
0.0
 10
79.297327
 20
118.346098
 30
0.0
 10
77.228400
 20
120.271552
 30
0.0
 10
76.947180
 20
120.163639
 30
0.0
  0
SPLINE
  5
23d
100
AcDbEntity
  8
0
 62
7
100
AcDbSpline
 70
8
 71
3
 72
8
 73
4
 74
0
 40
0
 40
0
 40
0
 40
0
 40
1
 40
1
 40
1
 40
1
 10
76.947180
 20
120.163639
 30
0.0
 10
76.615133
 20
120.036222
 30
0.0
 10
76.560000
 20
119.510528
 30
0.0
 10
76.560000
 20
116.471995
 30
0.0
  0
LWPOLYLINE
  5
23e
100
AcDbEntity
  8
0
 62
7
100
AcDbPolyline
 90
3
 70
0
 10
91.680000
 20
102.561192
 30
0.0
 10
91.680000
 20
105.943610
 30
0.0
 10
84.507180
 20
113.127912
 30
0.0
  0
SPLINE
  5
23f
100
AcDbEntity
  8
0
 62
7
100
AcDbSpline
 70
8
 71
3
 72
8
 73
4
 74
0
 40
0
 40
0
 40
0
 40
0
 40
1
 40
1
 40
1
 40
1
 10
83.745712
 20
105.743215
 30
0.0
 10
89.954588
 20
99.534340
 30
0.0
 10
90.982298
 20
98.599735
 30
0.0
 10
91.305712
 20
98.868139
 30
0.0
  0
SPLINE
  5
240
100
AcDbEntity
  8
0
 62
7
100
AcDbSpline
 70
8
 71
3
 72
8
 73
4
 74
0
 40
0
 40
0
 40
0
 40
0
 40
1
 40
1
 40
1
 40
1
 10
91.305712
 20
98.868139
 30
0.0
 10
91.612365
 20
99.122640
 30
0.0
 10
91.680000
 20
99.789988
 30
0.0
 10
91.680000
 20
102.561192
 30
0.0
  0
LWPOLYLINE
  5
241
100
AcDbEntity
  8
0
 62
7
100
AcDbPolyline
 90
3
 70
0
 10
76.560000
 20
116.471995
 30
0.0
 10
76.560000
 20
112.928926
 30
0.0
 10
83.745712
 20
105.743215
 30
0.0
  0
SPLINE
  5
242
100
AcDbEntity
  8
0
 62
7
100
AcDbSpline
 70
8
 71
3
 72
8
 73
4
 74
0
 40
0
 40
0
 40
0
 40
0
 40
1
 40
1
 40
1
 40
1
 10
29.171590
 20
106.091813
 30
0.0
 10
33.125215
 20
110.058308
 30
0.0
 10
36.414000
 20
113.371334
 30
0.0
 10
36.480000
 20
113.454091
 30
0.0
  0
SPLINE
  5
243
100
AcDbEntity
  8
0
 62
7
100
AcDbSpline
 70
8
 71
3
 72
8
 73
4
 74
0
 40
0
 40
0
 40
0
 40
0
 40
1
 40
1
 40
1
 40
1
 10
36.480000
 20
113.454091
 30
0.0
 10
36.672989
 20
113.696077
 30
0.0
 10
35.071380
 20
112.578916
 30
0.0
 10
33.000000
 20
111.026705
 30
0.0
  0
SPLINE
  5
244
100
AcDbEntity
  8
0
 62
7
100
AcDbSpline
 70
8
 71
3
 72
8
 73
4
 74
0
 40
0
 40
0
 40
0
 40
0
 40
1
 40
1
 40
1
 40
1
 10
33.000000
 20
111.026705
 30
0.0
 10
29.617322
 20
108.491859
 30
0.0
 10
23.368113
 20
101.911512
 30
0.0
 10
21.749449
 20
99.180000
 30
0.0
  0
SPLINE
  5
245
100
AcDbEntity
  8
0
 62
7
100
AcDbSpline
 70
8
 71
3
 72
8
 73
4
 74
0
 40
0
 40
0
 40
0
 40
0
 40
1
 40
1
 40
1
 40
1
 10
21.749449
 20
99.180000
 30
0.0
 10
21.141104
 20
98.153412
 30
0.0
 10
22.782891
 20
99.682312
 30
0.0
 10
29.171590
 20
106.091813
 30
0.0
  0
LWPOLYLINE
  5
246
100
AcDbEntity
  8
0
 62
7
100
AcDbPolyline
 90
1
 70
1
 10
91.680000
 20
102.561192
 30
0.0
  0
LWPOLYLINE
  5
247
100
AcDbEntity
  8
0
 62
7
100
AcDbPolyline
 90
1
 70
1
 10
29.171590
 20
106.091813
 30
0.0
  0
SPLINE
  5
248
100
AcDbEntity
  8
0
 62
7
100
AcDbSpline
 70
8
 71
3
 72
8
 73
4
 74
0
 40
0
 40
0
 40
0
 40
0
 40
1
 40
1
 40
1
 40
1
 10
101.760000
 20
108.737953
 30
0.0
 10
100.770000
 20
109.651726
 30
0.0
 10
99.899505
 20
110.399502
 30
0.0
 10
99.825577
 20
110.399679
 30
0.0
  0
SPLINE
  5
249
100
AcDbEntity
  8
0
 62
7
100
AcDbSpline
 70
8
 71
3
 72
8
 73
4
 74
0
 40
0
 40
0
 40
0
 40
0
 40
1
 40
1
 40
1
 40
1
 10
99.825577
 20
110.399679
 30
0.0
 10
99.751627
 20
110.399855
 30
0.0
 10
98.590642
 20
109.281657
 30
0.0
 10
97.245577
 20
107.914793
 30
0.0
  0
LWPOLYLINE
  5
24a
100
AcDbEntity
  8
0
 62
7
100
AcDbPolyline
 90
3
 70
0
 10
99.482647
 20
102.978274
 30
0.0
 10
103.560000
 20
107.076548
 30
0.0
 10
101.760000
 20
108.737953
 30
0.0
  0
SPLINE
  5
24b
100
AcDbEntity
  8
0
 62
7
100
AcDbSpline
 70
8
 71
3
 72
8
 73
4
 74
0
 40
0
 40
0
 40
0
 40
0
 40
1
 40
1
 40
1
 40
1
 10
94.800000
 20
102.154792
 30
0.0
 10
94.800000
 20
99.679680
 30
0.0
 10
94.873875
 20
98.880000
 30
0.0
 10
95.102648
 20
98.880000
 30
0.0
  0
SPLINE
  5
24c
100
AcDbEntity
  8
0
 62
7
100
AcDbSpline
 70
8
 71
3
 72
8
 73
4
 74
0
 40
0
 40
0
 40
0
 40
0
 40
1
 40
1
 40
1
 40
1
 10
95.102648
 20
98.880000
 30
0.0
 10
95.269103
 20
98.880000
 30
0.0
 10
97.240103
 20
100.724222
 30
0.0
 10
99.482647
 20
102.978274
 30
0.0
  0
LWPOLYLINE
  5
24d
100
AcDbEntity
  8
0
 62
7
100
AcDbPolyline
 90
3
 70
0
 10
97.245577
 20
107.914793
 30
0.0
 10
94.800000
 20
105.429586
 30
0.0
 10
94.800000
 20
102.154792
 30
0.0
  0
SPLINE
  5
24e
100
AcDbEntity
  8
0
 62
7
100
AcDbSpline
 70
8
 71
3
 72
8
 73
4
 74
0
 40
0
 40
0
 40
0
 40
0
 40
1
 40
1
 40
1
 40
1
 10
73.152000
 20
108.048000
 30
0.0
 10
73.347689
 20
108.243689
 30
0.0
 10
73.440000
 20
109.379407
 30
0.0
 10
73.440000
 20
111.591335
 30
0.0
  0
LWPOLYLINE
  5
24f
100
AcDbEntity
  8
0
 62
7
100
AcDbPolyline
 90
1
 70
1
 10
99.482647
 20
102.978274
 30
0.0
  0
SPLINE
  5
250
100
AcDbEntity
  8
0
 62
7
100
AcDbSpline
 70
8
 71
3
 72
8
 73
4
 74
0
 40
0
 40
0
 40
0
 40
0
 40
1
 40
1
 40
1
 40
1
 10
65.873587
 20
114.420000
 30
0.0
 10
69.538126
 20
110.757000
 30
0.0
 10
72.610096
 20
107.760000
 30
0.0
 10
72.700190
 20
107.760000
 30
0.0
  0
SPLINE
  5
251
100
AcDbEntity
  8
0
 62
7
100
AcDbSpline
 70
8
 71
3
 72
8
 73
4
 74
0
 40
0
 40
0
 40
0
 40
0
 40
1
 40
1
 40
1
 40
1
 10
72.700190
 20
107.760000
 30
0.0
 10
72.790286
 20
107.760000
 30
0.0
 10
72.993600
 20
107.889600
 30
0.0
 10
73.152000
 20
108.048000
 30
0.0
  0
LWPOLYLINE
  5
252
100
AcDbEntity
  8
0
 62
7
100
AcDbPolyline
 90
7
 70
0
 10
73.440000
 20
111.591335
 30
0.0
 10
73.440000
 20
114.846669
 30
0.0
 10
70.250582
 20
118.029522
 30
0.0
 10
67.061164
 20
121.212375
 30
0.0
 10
63.135980
 20
121.146187
 30
0.0
 10
59.210794
 20
121.080000
 30
0.0
 10
65.873587
 20
114.420000
 30
0.0
  0
SPLINE
  5
253
100
AcDbEntity
  8
0
 62
7
100
AcDbSpline
 70
8
 71
3
 72
8
 73
4
 74
0
 40
0
 40
0
 40
0
 40
0
 40
1
 40
1
 40
1
 40
1
 10
46.801699
 20
114.373411
 30
0.0
 10
53.861342
 20
121.449830
 30
0.0
 10
53.713301
 20
121.084228
 30
0.0
 10
48.875434
 20
119.494684
 30
0.0
  0
SPLINE
  5
254
100
AcDbEntity
  8
0
 62
7
100
AcDbSpline
 70
8
 71
3
 72
8
 73
4
 74
0
 40
0
 40
0
 40
0
 40
0
 40
1
 40
1
 40
1
 40
1
 10
48.875434
 20
119.494684
 30
0.0
 10
43.799988
 20
117.827080
 30
0.0
 10
41.009266
 20
116.279992
 30
0.0
 10
40.175872
 20
114.671918
 30
0.0
  0
SPLINE
  5
255
100
AcDbEntity
  8
0
 62
7
100
AcDbSpline
 70
8
 71
3
 72
8
 73
4
 74
0
 40
0
 40
0
 40
0
 40
0
 40
1
 40
1
 40
1
 40
1
 10
40.175872
 20
114.671918
 30
0.0
 10
39.721666
 20
113.795503
 30
0.0
 10
39.691980
 20
108.000000
 30
0.0
 10
40.141700
 20
108.000000
 30
0.0
  0
SPLINE
  5
256
100
AcDbEntity
  8
0
 62
7
100
AcDbSpline
 70
8
 71
3
 72
8
 73
4
 74
0
 40
0
 40
0
 40
0
 40
0
 40
1
 40
1
 40
1
 40
1
 10
40.141700
 20
108.000000
 30
0.0
 10
40.307632
 20
108.000000
 30
0.0
 10
43.304633
 20
110.868034
 30
0.0
 10
46.801700
 20
114.373411
 30
0.0
  0
LWPOLYLINE
  5
257
100
AcDbEntity
  8
0
 62
7
100
AcDbPolyline
 90
1
 70
1
 10
73.152000
 20
108.048000
 30
0.0
  0
LWPOLYLINE
  5
258
100
AcDbEntity
  8
0
 62
7
100
AcDbPolyline
 90
1
 70
1
 10
46.801700
 20
114.373411
 30
0.0
  0
SPLINE
  5
259
100
AcDbEntity
  8
0
 62
7
100
AcDbSpline
 70
8
 71
3
 72
8
 73
4
 74
0
 40
0
 40
0
 40
0
 40
0
 40
1
 40
1
 40
1
 40
1
 10
88.868993
 20
117.171683
 30
0.0
 10
86.364915
 20
118.355885
 30
0.0
 10
83.516648
 20
119.520000
 30
0.0
 10
83.123333
 20
119.520000
 30
0.0
  0
SPLINE
  5
25a
100
AcDbEntity
  8
0
 62
7
100
AcDbSpline
 70
8
 71
3
 72
8
 73
4
 74
0
 40
0
 40
0
 40
0
 40
0
 40
1
 40
1
 40
1
 40
1
 10
83.123333
 20
119.520000
 30
0.0
 10
83.047065
 20
119.520000
 30
0.0
 10
84.733845
 20
117.785762
 30
0.0
 10
86.871735
 20
115.666138
 30
0.0
  0
SPLINE
  5
25b
100
AcDbEntity
  8
0
 62
7
100
AcDbSpline
 70
8
 71
3
 72
8
 73
4
 74
0
 40
0
 40
0
 40
0
 40
0
 40
1
 40
1
 40
1
 40
1
 10
86.871735
 20
115.666138
 30
0.0
 10
89.330377
 20
113.228495
 30
0.0
 10
90.906008
 20
111.840394
 30
0.0
 10
91.159395
 20
111.888792
 30
0.0
  0
SPLINE
  5
25c
100
AcDbEntity
  8
0
 62
7
100
AcDbSpline
 70
8
 71
3
 72
8
 73
4
 74
0
 40
0
 40
0
 40
0
 40
0
 40
1
 40
1
 40
1
 40
1
 10
91.159395
 20
111.888792
 30
0.0
 10
91.486950
 20
111.951357
 30
0.0
 10
91.572585
 20
112.318016
 30
0.0
 10
91.629008
 20
113.899569
 30
0.0
  0
LWPOLYLINE
  5
25d
100
AcDbEntity
  8
0
 62
7
100
AcDbPolyline
 90
3
 70
0
 10
91.629008
 20
113.899569
 30
0.0
 10
91.698008
 20
115.833830
 30
0.0
 10
88.868993
 20
117.171683
 30
0.0
  0
LWPOLYLINE
  5
25e
100
AcDbEntity
  8
0
 62
7
100
AcDbPolyline
 90
1
 70
1
 10
91.629008
 20
113.899569
 30
0.0
  0
SPLINE
  5
25f
100
AcDbEntity
  8
0
 62
7
100
AcDbSpline
 70
8
 71
3
 72
8
 73
4
 74
0
 40
0
 40
0
 40
0
 40
0
 40
1
 40
1
 40
1
 40
1
 10
94.800000
 20
112.936342
 30
0.0
 10
94.800000
 20
111.692765
 30
0.0
 10
94.968960
 20
111.597979
 30
0.0
 10
95.734035
 20
112.412359
 30
0.0
  0
LWPOLYLINE
  5
260
100
AcDbEntity
  8
0
 62
7
100
AcDbPolyline
 90
5
 70
0
 10
95.734035
 20
112.412359
 30
0.0
 10
96.271733
 20
112.984718
 30
0.0
 10
95.535870
 20
113.508701
 30
0.0
 10
94.800000
 20
114.032685
 30
0.0
 10
94.800000
 20
112.936342
 30
0.0
  0
SPLINE
  5
261
100
AcDbEntity
  8
0
 62
7
100
AcDbSpline
 70
8
 71
3
 72
8
 73
4
 74
0
 40
0
 40
0
 40
0
 40
0
 40
1
 40
1
 40
1
 40
1
 10
73.020000
 20
121.118948
 30
0.0
 10
72.855000
 20
121.185525
 30
0.0
 10
72.585000
 20
121.185525
 30
0.0
 10
72.420000
 20
121.118948
 30
0.0
  0
SPLINE
  5
262
100
AcDbEntity
  8
0
 62
7
100
AcDbSpline
 70
8
 71
3
 72
8
 73
4
 74
0
 40
0
 40
0
 40
0
 40
0
 40
1
 40
1
 40
1
 40
1
 10
72.420000
 20
121.118948
 30
0.0
 10
72.255000
 20
121.052370
 30
0.0
 10
72.390000
 20
120.997895
 30
0.0
 10
72.720000
 20
120.997895
 30
0.0
  0
SPLINE
  5
263
100
AcDbEntity
  8
0
 62
7
100
AcDbSpline
 70
8
 71
3
 72
8
 73
4
 74
0
 40
0
 40
0
 40
0
 40
0
 40
1
 40
1
 40
1
 40
1
 10
72.720000
 20
120.997895
 30
0.0
 10
73.050000
 20
120.997895
 30
0.0
 10
73.185000
 20
121.052367
 30
0.0
 10
73.020000
 20
121.118948
 30
0.0
  0
LWPOLYLINE
  5
264
100
AcDbEntity
  8
0
 62
7
100
AcDbPolyline
 90
1
 70
1
 10
95.734035
 20
112.412359
 30
0.0
  0
LWPOLYLINE
  5
265
100
AcDbEntity
  8
0
 62
7
100
AcDbPolyline
 90
1
 70
1
 10
73.020000
 20
121.118948
 30
0.0
  0
ENDSEC
  0
SECTION
  2
OBJECTS
  0
DICTIONARY
  5
C
330
0
100
AcDbDictionary
  3
ACAD_GROUP
350
D
  3
ACAD_MLINESTYLE
350
17
  0
DICTIONARY
  5
D
330
C
100
AcDbDictionary
  0
DICTIONARY
  5
1A
330
C
100
AcDbDictionary
  0
DICTIONARY
  5
17
330
C
100
AcDbDictionary
  3
STANDARD
350
18
  0
DICTIONARY
  5
19
330
C
100
AcDbDictionary
  0
ENDSEC
  0
EOF
